999
DXF file: bg_BG-E1531-400BD-254-SS.dxf
999
Pro/ENGINEER 2020184 by Parametric Technology Corporation
  0
SECTION
  2
HEADER
  9
$ACADVER
  1
AC1032
  9
$DWGCODEPAGE
  3
ANSI_1252
  9
$EXTMAX
 10
22.0
 20
17.0
 30
0.0
  9
$EXTMIN
 10
0.0
 20
0.0
 30
0.0
  9
$LIMMIN
 10
0.0
 20
0.0
  9
$LIMMAX
 10
22.0
 20
17.0
  9
$VIEWCTR
 10
11.0
 20
8.5
  9
$VIEWSIZE
 40
17.0
  9
$CLAYER
  8
0
  9
$LTSCALE
 40
1.21
  9
$CELTYPE
  6
BYLAYER
  9
$DIMSCALE
 40
1.0
  9
$DIMASZ
 40
0.1875
  9
$DIMEXO
 40
0.0625
  9
$DIMDLI
 40
0.836
  9
$DIMEXE
 40
0.125
  9
$DIMCEN
 40
0.198
  9
$DIMLFAC
 40
9.0
  9
$DIMBLK
  1
_CLOSED
  9
$DIMALT
 70
0
  9
$DIMALTF
 40
25.4
  9
$DIMTXT
 40
0.15625
  9
$DIMTOL
 70
0
  9
$DIMLIM
 70
0
  9
$DIMTFAC
 40
1.0
  9
$DIMGAP
 40
0.09
  9
$DIMDSEP
 70
46
  9
$AUNITS
 70
0
  9
$PDMODE
 70
3
  9
$PDSIZE
 40
0.3125
  9
$HANDSEED
  5
3E9
  9
$TILEMODE
 70
1
  9
$MEASUREMENT
 70
0
  9
$INSUNITS
 70
1
  0
ENDSEC
  0
SECTION
  2
CLASSES
  0
CLASS
  1
ACDBDICTIONARYWDFLT
  2
AcDbDictionaryWithDefault
  3
AutoCAD 2000
 90
0
 91
1
280
0
281
0
  0
CLASS
  1
ACDBPLACEHOLDER
  2
AcDbPlaceHolder
  3
AutoCAD 2000
 90
0
 91
1
280
0
281
0
  0
CLASS
  1
LAYOUT
  2
AcDbLayout
  3
AutoCAD 2000
 90
0
 91
0
280
0
281
0
  0
ENDSEC
  0
SECTION
  2
TABLES
  0
TABLE
  2
VPORT
  5
8
100
AcDbSymbolTable
 70
2
  0
VPORT
  5
1F4
100
AcDbSymbolTableRecord
100
AcDbViewportTableRecord
  2
*ACTIVE
 70
0
 10
0.0
 20
0.0
 11
1.0
 21
1.0
 12
11.0
 22
8.5
 13
0.0
 23
0.0
 14
1.0
 24
1.0
 15
0.0
 25
0.0
 16
0.0
 26
0.0
 36
1.0
 17
0.0
 27
0.0
 37
0.0
 40
17.0
 41
1.2941176471
 42
50.0
 43
0.0
 44
0.0
 50
0.0
 51
0.0
 71
0
 72
100
 73
1
 74
1
 75
0
 76
0
 77
0
 78
0
  0
ENDTAB
  0
TABLE
  2
LTYPE
  5
5
100
AcDbSymbolTable
 70
6
  0
LTYPE
  5
14
100
AcDbSymbolTableRecord
100
AcDbLinetypeTableRecord
  2
BYBLOCK
 70
0
  3

 72
65
 73
0
 40
0.0
  0
LTYPE
  5
15
100
AcDbSymbolTableRecord
100
AcDbLinetypeTableRecord
  2
BYLAYER
 70
0
  3

 72
65
 73
0
 40
0.0
  0
LTYPE
  5
16
100
AcDbSymbolTableRecord
100
AcDbLinetypeTableRecord
  2
CONTINUOUS
 70
64
  3
Solid line
 72
65
 73
0
 40
0.0
  0
LTYPE
  5
1F5
100
AcDbSymbolTableRecord
100
AcDbLinetypeTableRecord
  2
CENTER
 70
64
  3
____ _ ____ _ ____ _ ____ _ ____ _ ____ _ ____
 72
65
 73
4
 40
0.6
 49
0.375
 74
0
 49
-0.075
 74
0
 49
0.075
 74
0
 49
-0.075
 74
0
  0
LTYPE
  5
1F6
100
AcDbSymbolTableRecord
100
AcDbLinetypeTableRecord
  2
HIDDEN
 70
64
  3
- - - - - - - - - - - - - - - - - - - -
 72
65
 73
2
 40
0.2
 49
0.1
 74
0
 49
-0.1
 74
0
  0
LTYPE
  5
1F7
100
AcDbSymbolTableRecord
100
AcDbLinetypeTableRecord
  2
PHANTOM
 70
64
  3
_____ _ _ _____ _ _ _____ _ _ _____
 72
65
 73
6
 40
0.8
 49
0.45
 74
0
 49
-0.05
 74
0
 49
0.1
 74
0
 49
-0.05
 74
0
 49
0.1
 74
0
 49
-0.05
 74
0
  0
LTYPE
  5
1F8
100
AcDbSymbolTableRecord
100
AcDbLinetypeTableRecord
  2
DOT
 70
64
  3
. . . . . . . . . . . . . . . . . . . .
 72
65
 73
2
 40
0.2
 49
0.1
 74
0
 49
-0.1
 74
0
  0
LTYPE
  5
1F9
100
AcDbSymbolTableRecord
100
AcDbLinetypeTableRecord
  2
DASHED
 70
64
  3
- - - - - - - - - - - - - - - - - - - -
 72
65
 73
2
 40
0.2
 49
0.1
 74
0
 49
-0.1
 74
0
  0
ENDTAB
  0
TABLE
  2
LAYER
  5
2
100
AcDbSymbolTable
 70
36
  0
LAYER
  5
10
100
AcDbSymbolTableRecord
100
AcDbLayerTableRecord
  2
0
 70
0
 62
7
  6
CONTINUOUS
370
-3
390
F
  0
LAYER
  5
1FA
100
AcDbSymbolTableRecord
100
AcDbLayerTableRecord
  2
DEFAULT_1
 70
0
 62
7
  6
CENTER
370
-3
390
F
  0
LAYER
  5
1FB
100
AcDbSymbolTableRecord
100
AcDbLayerTableRecord
  2
DEFAULT_2
 70
0
 62
7
  6
HIDDEN
370
-3
390
F
  0
LAYER
  5
1FC
100
AcDbSymbolTableRecord
100
AcDbLayerTableRecord
  2
DEFAULT_3
 70
0
 62
7
  6
PHANTOM
370
-3
390
F
  0
LAYER
  5
1FD
100
AcDbSymbolTableRecord
100
AcDbLayerTableRecord
  2
01_ALL_DTM_PLN
 70
0
 62
7
  6
CONTINUOUS
370
-3
390
F
  0
LAYER
  5
1FE
100
AcDbSymbolTableRecord
100
AcDbLayerTableRecord
  2
01__ASM_ALL_DTM_PLN
 70
0
 62
7
  6
CONTINUOUS
370
-3
390
F
  0
LAYER
  5
1FF
100
AcDbSymbolTableRecord
100
AcDbLayerTableRecord
  2
01__ASM_DEF_DTM_PLN
 70
0
 62
7
  6
CONTINUOUS
370
-3
390
F
  0
LAYER
  5
200
100
AcDbSymbolTableRecord
100
AcDbLayerTableRecord
  2
01___PRT_ALL_DTM_PLN
 70
0
 62
7
  6
CONTINUOUS
370
-3
390
F
  0
LAYER
  5
201
100
AcDbSymbolTableRecord
100
AcDbLayerTableRecord
  2
01___PRT_DEF_DTM_PLN
 70
0
 62
7
  6
CONTINUOUS
370
-3
390
F
  0
LAYER
  5
202
100
AcDbSymbolTableRecord
100
AcDbLayerTableRecord
  2
02_ALL_AXES
 70
0
 62
7
  6
CONTINUOUS
370
-3
390
F
  0
LAYER
  5
203
100
AcDbSymbolTableRecord
100
AcDbLayerTableRecord
  2
02__ASM_ALL_AXES
 70
0
 62
7
  6
CONTINUOUS
370
-3
390
F
  0
LAYER
  5
204
100
AcDbSymbolTableRecord
100
AcDbLayerTableRecord
  2
02___PRT_ALL_AXES
 70
0
 62
7
  6
CONTINUOUS
370
-3
390
F
  0
LAYER
  5
205
100
AcDbSymbolTableRecord
100
AcDbLayerTableRecord
  2
03_ALL_CURVES
 70
0
 62
7
  6
CONTINUOUS
370
-3
390
F
  0
LAYER
  5
206
100
AcDbSymbolTableRecord
100
AcDbLayerTableRecord
  2
03__ASM_ALL_CURVES
 70
0
 62
7
  6
CONTINUOUS
370
-3
390
F
  0
LAYER
  5
207
100
AcDbSymbolTableRecord
100
AcDbLayerTableRecord
  2
03___PRT_ALL_CURVES
 70
0
 62
7
  6
CONTINUOUS
370
-3
390
F
  0
LAYER
  5
208
100
AcDbSymbolTableRecord
100
AcDbLayerTableRecord
  2
04_ALL_DTM_PNT
 70
0
 62
7
  6
CONTINUOUS
370
-3
390
F
  0
LAYER
  5
209
100
AcDbSymbolTableRecord
100
AcDbLayerTableRecord
  2
04__ASM_ALL_DTM_PNT
 70
0
 62
7
  6
CONTINUOUS
370
-3
390
F
  0
LAYER
  5
20A
100
AcDbSymbolTableRecord
100
AcDbLayerTableRecord
  2
04___PRT_ALL_DTM_PNT
 70
0
 62
7
  6
CONTINUOUS
370
-3
390
F
  0
LAYER
  5
20B
100
AcDbSymbolTableRecord
100
AcDbLayerTableRecord
  2
05_ALL_DTM_CSYS
 70
0
 62
7
  6
CONTINUOUS
370
-3
390
F
  0
LAYER
  5
20C
100
AcDbSymbolTableRecord
100
AcDbLayerTableRecord
  2
05__ASM_ALL_DTM_CSYS
 70
0
 62
7
  6
CONTINUOUS
370
-3
390
F
  0
LAYER
  5
20D
100
AcDbSymbolTableRecord
100
AcDbLayerTableRecord
  2
05__ASM_DEF_DTM_CSYS
 70
0
 62
7
  6
CONTINUOUS
370
-3
390
F
  0
LAYER
  5
20E
100
AcDbSymbolTableRecord
100
AcDbLayerTableRecord
  2
05___PRT_ALL_DTM_CSYS
 70
0
 62
7
  6
CONTINUOUS
370
-3
390
F
  0
LAYER
  5
20F
100
AcDbSymbolTableRecord
100
AcDbLayerTableRecord
  2
05___PRT_DEF_DTM_CSYS
 70
0
 62
7
  6
CONTINUOUS
370
-3
390
F
  0
LAYER
  5
210
100
AcDbSymbolTableRecord
100
AcDbLayerTableRecord
  2
06_ALL_SURFS
 70
0
 62
7
  6
CONTINUOUS
370
-3
390
F
  0
LAYER
  5
211
100
AcDbSymbolTableRecord
100
AcDbLayerTableRecord
  2
06__ASM_ALL_SURFS
 70
0
 62
7
  6
CONTINUOUS
370
-3
390
F
  0
LAYER
  5
212
100
AcDbSymbolTableRecord
100
AcDbLayerTableRecord
  2
06___PRT_ALL_SURFS
 70
0
 62
7
  6
CONTINUOUS
370
-3
390
F
  0
LAYER
  5
213
100
AcDbSymbolTableRecord
100
AcDbLayerTableRecord
  2
07__ASM_ALL_SKELETONS
 70
0
 62
7
  6
CONTINUOUS
370
-3
390
F
  0
LAYER
  5
214
100
AcDbSymbolTableRecord
100
AcDbLayerTableRecord
  2
DTM
 70
0
 62
7
  6
CONTINUOUS
370
-3
390
F
  0
LAYER
  5
215
100
AcDbSymbolTableRecord
100
AcDbLayerTableRecord
  2
HIDE
 70
0
 62
7
  6
CONTINUOUS
370
-3
390
F
  0
ENDTAB
  0
TABLE
  2
STYLE
  5
3
100
AcDbSymbolTable
 70
1
  0
STYLE
  5
11
100
AcDbSymbolTableRecord
100
AcDbTextStyleTableRecord
  2
STANDARD
 70
0
 40
0.0
 41
0.8
 50
0.0
 71
0
 42
0.2
  3
SIMPLEX.SHX
  4

  0
STYLE
  5
216
100
AcDbSymbolTableRecord
100
AcDbTextStyleTableRecord
  2
TEXTSTYLE_1
 70
0
 40
0.0
 41
0.8
 50
0.0
 71
0
 42
0.2
  3
gdt
  4

  0
ENDTAB
  0
TABLE
  2
VIEW
  5
6
100
AcDbSymbolTable
 70
0
  0
ENDTAB
  0
TABLE
  2
UCS
  5
7
100
AcDbSymbolTable
 70
0
  0
ENDTAB
  0
TABLE
  2
APPID
  5
9
100
AcDbSymbolTable
 70
1
  0
APPID
  5
217
100
AcDbSymbolTableRecord
100
AcDbRegAppTableRecord
  2
ACAD
 70
0
  0
ENDTAB
  0
TABLE
  2
BLOCK_RECORD
  5
1
100
AcDbSymbolTable
 70
0
  0
BLOCK_RECORD
  5
218
100
AcDbSymbolTableRecord
100
AcDbBlockTableRecord
  2
*Model_Space
  0
BLOCK_RECORD
  5
219
100
AcDbSymbolTableRecord
100
AcDbBlockTableRecord
  2
*Paper_Space
  0
BLOCK_RECORD
  5
21A
100
AcDbSymbolTableRecord
100
AcDbBlockTableRecord
  2
_CLOSED
  0
ENDTAB
  0
TABLE
  2
DIMSTYLE
  5
A
100
AcDbSymbolTable
 70
1
100
AcDbDimStyleTable
 71
0
  0
DIMSTYLE
105
21B
100
AcDbSymbolTableRecord
100
AcDbDimStyleTableRecord
  2
STANDARD
 70
0
  3

  4

 40
1.0
 41
0.1875
 42
0.0625
 43
0.38
 44
0.125
 45
0.0
 46
0.0
 47
0.0001
 48
0.0001
140
0.15625
141
0.09
142
0.0
143
25.4
144
1.0
145
0.0
146
1.0
147
0.09
 71
0
 72
0
 73
1
 74
1
 75
0
 76
0
 77
0
 78
4
 79
1
170
0
171
3
172
0
173
0
174
0
175
0
176
0
177
0
178
0
270
2
179
4
271
4
272
4
273
2
274
2
275
0
280
0
281
0
282
0
283
1
284
4
285
0
286
0
287
3
288
0
340
11
278
46
341
21A
342
21A
343
21A
344
21A
  0
ENDTAB
  0
ENDSEC
  0
SECTION
  2
BLOCKS
  0
BLOCK
  5
20
100
AcDbEntity
  8
0
100
AcDbBlockBegin
  2
*Model_Space
 70
0
 10
0.0
 20
0.0
 30
0.0
  3
*Model_Space
  1

  0
ENDBLK
  5
21
100
AcDbEntity
  8
0
100
AcDbBlockEnd
  0
BLOCK
  5
1C
100
AcDbEntity
  8
0
100
AcDbBlockBegin
  2
*Paper_Space
 70
0
 10
0.0
 20
0.0
 30
0.0
  3
*Paper_Space
  1

  0
ENDBLK
  5
1D
100
AcDbEntity
  8
0
100
AcDbBlockEnd
  0
BLOCK
  5
21C
100
AcDbEntity
  8
0
100
AcDbBlockBegin
  2
_CLOSED
 70
64
 10
0.0
 20
0.0
  3
_CLOSED
  1

  0
LINE
  5
21D
100
AcDbEntity
  8
0
  6
BYBLOCK
 62
0
100
AcDbLine
 10
0.0
 20
0.0
 11
-1.0
 21
0.1666666667
  0
LINE
  5
21E
100
AcDbEntity
  8
0
  6
BYBLOCK
 62
0
100
AcDbLine
 10
-1.0
 20
0.1666666667
 11
-1.0
 21
-0.1666666667
  0
LINE
  5
21F
100
AcDbEntity
  8
0
  6
BYBLOCK
 62
0
100
AcDbLine
 10
-1.0
 20
-0.1666666667
 11
0.0
 21
0.0
  0
LINE
  5
220
100
AcDbEntity
  8
0
  6
BYBLOCK
 62
0
100
AcDbLine
 10
-1.0
 20
0.0
 11
0.0
 21
0.0
  0
ENDBLK
  5
221
100
AcDbEntity
  8
0
  6
BYBLOCK
 62
0
100
AcDbBlockEnd
  0
ENDSEC
  0
SECTION
  2
ENTITIES
  0
LINE
  5
222
100
AcDbEntity
  8
0
100
AcDbLine
 62
7
  6
BYLAYER
 10
0.0
 20
0.0
 11
0.0
 21
17.0
  0
LINE
  5
223
100
AcDbEntity
  8
0
100
AcDbLine
 62
7
  6
BYLAYER
 10
0.0
 20
0.0
 11
22.0
 21
0.0
  0
LINE
  5
224
100
AcDbEntity
  8
0
100
AcDbLine
 62
7
  6
BYLAYER
 10
0.0
 20
17.0
 11
22.0
 21
17.0
  0
LINE
  5
225
100
AcDbEntity
  8
0
100
AcDbLine
 62
7
  6
BYLAYER
 10
22.0
 20
0.0
 11
22.0
 21
17.0
  0
LINE
  5
226
100
AcDbEntity
  8
0
100
AcDbLine
 62
7
  6
BYLAYER
 10
3.7361111111
 20
3.6345405556
 11
3.7361111111
 21
4.9366238889
  0
LINE
  5
227
100
AcDbEntity
  8
0
100
AcDbLine
 62
7
  6
BYLAYER
 10
3.8083333333
 20
3.6189155556
 11
3.8083333333
 21
5.0494711111
  0
LINE
  5
228
100
AcDbEntity
  8
0
100
AcDbLine
 62
7
  6
BYLAYER
 10
4.4166666667
 20
3.6325645335
 11
4.4166666667
 21
3.5911377778
  0
LINE
  5
229
100
AcDbEntity
  8
0
100
AcDbLine
 62
7
  6
BYLAYER
 10
7.0183436306
 20
3.8586774574
 11
7.1527777778
 21
3.8946989786
  0
LINE
  5
22A
100
AcDbEntity
  8
0
100
AcDbLine
 62
7
  6
BYLAYER
 10
4.4166666667
 20
3.5911377778
 11
5.6111111111
 21
3.5911377778
  0
LINE
  5
22B
100
AcDbEntity
  8
0
100
AcDbLine
 62
7
  6
BYLAYER
 10
4.8611111111
 20
4.4687510798
 11
4.8611111111
 21
4.1024133647
  0
LINE
  5
22C
100
AcDbEntity
  8
0
100
AcDbLine
 62
7
  6
BYLAYER
 10
4.875
 20
4.1466933333
 11
4.875
 21
4.4244711111
  0
LINE
  5
22D
100
AcDbEntity
  8
0
100
AcDbLine
 62
7
  6
BYLAYER
 10
4.4166666667
 20
3.6122488889
 11
5.6111111111
 21
3.6122488889
  0
LINE
  5
22E
100
AcDbEntity
  8
0
100
AcDbLine
 62
7
  6
BYLAYER
 10
3.738353637
 20
3.6189155556
 11
4.4166666667
 21
3.6189155556
  0
LINE
  5
22F
100
AcDbEntity
  8
0
100
AcDbLine
 62
7
  6
BYLAYER
 10
5.6111111111
 20
3.6189155556
 11
5.9444444444
 21
3.6189155556
  0
LINE
  5
230
100
AcDbEntity
  8
0
100
AcDbLine
 62
7
  6
BYLAYER
 10
4.4166666667
 20
3.6325645335
 11
5.6111111111
 21
3.6325645335
  0
LINE
  5
231
100
AcDbEntity
  8
0
100
AcDbLine
 62
7
  6
BYLAYER
 10
7.2638888889
 20
3.7300266667
 11
7.1527777778
 21
3.7300266667
  0
LINE
  5
232
100
AcDbEntity
  8
0
100
AcDbLine
 62
7
  6
BYLAYER
 10
6.4965555536
 20
3.6050266667
 11
5.9444444444
 21
3.6779433333
  0
LINE
  5
233
100
AcDbEntity
  8
0
100
AcDbLine
 62
7
  6
BYLAYER
 10
5.1527777778
 20
4.4244711111
 11
5.1527777778
 21
4.1466933333
  0
LINE
  5
234
100
AcDbEntity
  8
0
100
AcDbLine
 62
7
  6
BYLAYER
 10
5.1666666667
 20
4.4687510798
 11
5.1666666667
 21
4.1024133647
  0
LINE
  5
235
100
AcDbEntity
  8
0
100
AcDbLine
 62
7
  6
BYLAYER
 10
6.0134583331
 20
3.9453044444
 11
6.4275416649
 21
3.9453044444
  0
LINE
  5
236
100
AcDbEntity
  8
0
100
AcDbLine
 62
7
  6
BYLAYER
 10
4.8611111111
 20
4.1024133647
 11
5.1666666667
 21
4.1024133647
  0
LINE
  5
237
100
AcDbEntity
  8
0
100
AcDbLine
 62
7
  6
BYLAYER
 10
4.8611111111
 20
4.1189155556
 11
5.1666666667
 21
4.1189155556
  0
LINE
  5
238
100
AcDbEntity
  8
0
100
AcDbLine
 62
7
  6
BYLAYER
 10
6.4275416649
 20
4.2022488889
 11
6.0134583331
 21
4.2022488889
  0
LINE
  5
239
100
AcDbEntity
  8
0
100
AcDbLine
 62
7
  6
BYLAYER
 10
5.6111111111
 20
3.6325645335
 11
5.6111111111
 21
3.5911377778
  0
LINE
  5
23A
100
AcDbEntity
  8
0
100
AcDbLine
 62
7
  6
BYLAYER
 10
6.4275416649
 20
4.3689155556
 11
6.0134583331
 21
4.3689155556
  0
LINE
  5
23B
100
AcDbEntity
  8
0
100
AcDbLine
 62
7
  6
BYLAYER
 10
5.7618055556
 20
5.0494711111
 11
5.7618055556
 21
3.6189155556
  0
LINE
  5
23C
100
AcDbEntity
  8
0
100
AcDbLine
 62
7
  6
BYLAYER
 10
4.9027777778
 20
4.4522488889
 11
5.125
 21
4.4522488889
  0
LINE
  5
23D
100
AcDbEntity
  8
0
100
AcDbLine
 62
7
  6
BYLAYER
 10
4.8611111111
 20
4.4687510798
 11
5.1666666667
 21
4.4687510798
  0
LINE
  5
23E
100
AcDbEntity
  8
0
100
AcDbLine
 62
7
  6
BYLAYER
 10
5.8340277778
 20
3.6189155556
 11
5.8340277778
 21
4.9921794444
  0
LINE
  5
23F
100
AcDbEntity
  8
0
100
AcDbLine
 62
7
  6
BYLAYER
 10
5.8722222222
 20
3.6189155556
 11
5.8722222222
 21
4.953985
  0
LINE
  5
240
100
AcDbEntity
  8
0
100
AcDbLine
 62
7
  6
BYLAYER
 10
6.0134583331
 20
4.62586
 11
6.4275416649
 21
4.62586
  0
LINE
  5
241
100
AcDbEntity
  8
0
100
AcDbLine
 62
7
  6
BYLAYER
 10
5.9444444444
 20
4.953985
 11
5.9444444444
 21
3.6189155556
  0
LINE
  5
242
100
AcDbEntity
  8
0
100
AcDbLine
 62
7
  6
BYLAYER
 10
6.0134583331
 20
4.62586
 11
6.0134583331
 21
3.9453044444
  0
LINE
  5
243
100
AcDbEntity
  8
0
100
AcDbLine
 62
7
  6
BYLAYER
 10
6.4965555536
 20
4.9661377778
 11
5.9444444444
 21
4.8932211111
  0
LINE
  5
244
100
AcDbEntity
  8
0
100
AcDbLine
 62
7
  6
BYLAYER
 10
7.2638888889
 20
4.8411377778
 11
7.1527777778
 21
4.8411377778
  0
LINE
  5
245
100
AcDbEntity
  8
0
100
AcDbLine
 62
7
  6
BYLAYER
 10
6.2083333333
 20
5.1744711111
 11
6.2083333333
 21
5.0633599997
  0
LINE
  5
246
100
AcDbEntity
  8
0
100
AcDbLine
 62
7
  6
BYLAYER
 10
6.4965555556
 20
5.06336
 11
6.6012114933
 21
5.0725162081
  0
LINE
  5
247
100
AcDbEntity
  8
0
100
AcDbLine
 62
7
  6
BYLAYER
 10
6.7750582568
 20
5.0877258291
 11
6.9149425068
 21
5.0999641152
  0
LINE
  5
248
100
AcDbEntity
  8
0
100
AcDbLine
 62
7
  6
BYLAYER
 10
5.9444444444
 20
4.953985
 11
5.8722222222
 21
4.953985
  0
LINE
  5
249
100
AcDbEntity
  8
0
100
AcDbLine
 62
7
  6
BYLAYER
 10
5.8340277778
 20
4.9921794444
 11
5.7618055556
 21
4.9921794444
  0
LINE
  5
24A
100
AcDbEntity
  8
0
100
AcDbLine
 62
7
  6
BYLAYER
 10
3.8083333333
 20
4.9921794444
 11
3.7916666667
 21
4.9921794444
  0
LINE
  5
24B
100
AcDbEntity
  8
0
100
AcDbLine
 62
7
  6
BYLAYER
 10
3.8083333333
 20
5.0494711111
 11
5.7618055556
 21
5.0494711111
  0
LINE
  5
24C
100
AcDbEntity
  8
0
100
AcDbLine
 62
7
  6
BYLAYER
 10
7.2083333333
 20
5.0633599997
 11
6.9548888889
 21
5.0633599997
  0
LINE
  5
24D
100
AcDbEntity
  8
0
100
AcDbLine
 62
7
  6
BYLAYER
 10
6.2083333333
 20
5.0633599997
 11
6.4965555556
 21
5.0633599997
  0
LINE
  5
24E
100
AcDbEntity
  8
0
100
AcDbLine
 62
7
  6
BYLAYER
 10
5.8722222222
 20
4.953985
 11
5.8340277778
 21
4.9921794444
  0
LINE
  5
24F
100
AcDbEntity
  8
0
100
AcDbLine
 62
7
  6
BYLAYER
 10
6.4275416649
 20
4.62586
 11
6.4275416649
 21
3.9453044444
  0
LINE
  5
250
100
AcDbEntity
  8
0
100
AcDbLine
 62
7
  6
BYLAYER
 10
6.2083333333
 20
5.1744711111
 11
7.2083333333
 21
5.1744711111
  0
LINE
  5
251
100
AcDbEntity
  8
0
100
AcDbLine
 62
7
  6
BYLAYER
 10
7.0183436306
 20
4.712486987
 11
7.1527777778
 21
4.6764654658
  0
LINE
  5
252
100
AcDbEntity
  8
0
100
AcDbLine
 62
7
  6
BYLAYER
 10
6.4946273208
 20
3.6049294283
 11
6.4946094561
 21
3.6052836855
  0
LINE
  5
253
100
AcDbEntity
  8
0
100
AcDbLine
 62
7
  6
BYLAYER
 10
6.4613460512
 20
5.0304928901
 11
6.4613460512
 21
4.9614877001
  0
LINE
  5
254
100
AcDbEntity
  8
0
100
AcDbLine
 62
7
  6
BYLAYER
 10
6.4809815422
 20
5.0304928901
 11
6.4809815422
 21
4.9640809364
  0
LINE
  5
255
100
AcDbEntity
  8
0
100
AcDbLine
 62
7
  6
BYLAYER
 10
6.4965555556
 20
3.4443949358
 11
6.4965555556
 21
5.0633599998
  0
LINE
  5
256
100
AcDbEntity
  8
0
100
AcDbLine
 62
7
  6
BYLAYER
 10
6.9370423051
 20
3.4762924317
 11
6.9370423051
 21
4.2855822222
  0
LINE
  5
257
100
AcDbEntity
  8
0
100
AcDbLine
 62
7
  6
BYLAYER
 10
6.9548888889
 20
5.06336
 11
6.9548888889
 21
3.5078044453
  0
LINE
  5
258
100
AcDbEntity
  8
0
100
AcDbLine
 62
7
  6
BYLAYER
 10
6.9583333333
 20
3.5810702767
 11
6.9583333333
 21
5.0304928898
  0
LINE
  5
259
100
AcDbEntity
  8
0
100
AcDbLine
 62
7
  6
BYLAYER
 10
7.1527777778
 20
4.8411377778
 11
7.1527777778
 21
3.7300266667
  0
LINE
  5
25A
100
AcDbEntity
  8
0
100
AcDbLine
 62
7
  6
BYLAYER
 10
7.2083333333
 20
5.1744711111
 11
7.2083333333
 21
5.0633599997
  0
LINE
  5
25B
100
AcDbEntity
  8
0
100
AcDbLine
 62
7
  6
BYLAYER
 10
7.2638888889
 20
4.8411377778
 11
7.2638888889
 21
3.7300266667
  0
LINE
  5
25C
100
AcDbEntity
  8
0
100
AcDbLine
 62
7
  6
BYLAYER
 10
3.7361111111
 20
12.0573322304
 11
3.7361111111
 21
13.3594004363
  0
LINE
  5
25D
100
AcDbEntity
  8
0
100
AcDbLine
 62
7
  6
BYLAYER
 10
3.8083333333
 20
11.9444774447
 11
3.8083333333
 21
13.472255222
  0
LINE
  5
25E
100
AcDbEntity
  8
0
100
AcDbLine
 62
7
  6
BYLAYER
 10
4.9027777778
 20
11.5139218889
 11
5.125
 21
11.5139218889
  0
LINE
  5
25F
100
AcDbEntity
  8
0
100
AcDbLine
 62
7
  6
BYLAYER
 10
4.8611111111
 20
11.5416996667
 11
4.875
 21
11.5416996667
  0
LINE
  5
260
100
AcDbEntity
  8
0
100
AcDbLine
 62
7
  6
BYLAYER
 10
5.1527777778
 20
11.5416996667
 11
5.1666666667
 21
11.5416996667
  0
LINE
  5
261
100
AcDbEntity
  8
0
100
AcDbLine
 62
7
  6
BYLAYER
 10
7.1527777778
 20
12.3174830897
 11
7.0183436306
 21
12.2814615685
  0
LINE
  5
262
100
AcDbEntity
  8
0
100
AcDbLine
 62
7
  6
BYLAYER
 10
4.9027777778
 20
11.9112969123
 11
5.125
 21
11.9112969123
  0
LINE
  5
263
100
AcDbEntity
  8
0
100
AcDbLine
 62
7
  6
BYLAYER
 10
4.8611111111
 20
11.9295944052
 11
5.1666666667
 21
11.9295944052
  0
LINE
  5
264
100
AcDbEntity
  8
0
100
AcDbLine
 62
7
  6
BYLAYER
 10
3.8083333333
 20
11.9444774444
 11
5.7618055556
 21
11.9444774444
  0
LINE
  5
265
100
AcDbEntity
  8
0
100
AcDbLine
 62
7
  6
BYLAYER
 10
4.9027777778
 20
11.96288095
 11
5.125
 21
11.96288095
  0
LINE
  5
266
100
AcDbEntity
  8
0
100
AcDbLine
 62
7
  6
BYLAYER
 10
5.8340277778
 20
12.0017691111
 11
5.7618055556
 21
12.0017691111
  0
LINE
  5
267
100
AcDbEntity
  8
0
100
AcDbLine
 62
7
  6
BYLAYER
 10
3.8083333333
 20
12.0017691111
 11
3.7916666667
 21
12.0017691111
  0
LINE
  5
268
100
AcDbEntity
  8
0
100
AcDbLine
 62
7
  6
BYLAYER
 10
5.9444444444
 20
12.0399635556
 11
5.8722222222
 21
12.0399635556
  0
LINE
  5
269
100
AcDbEntity
  8
0
100
AcDbLine
 62
7
  6
BYLAYER
 10
4.8611111111
 20
11.9444774444
 11
4.8611111111
 21
11.5416996667
  0
LINE
  5
26A
100
AcDbEntity
  8
0
100
AcDbLine
 62
7
  6
BYLAYER
 10
4.875
 20
11.9572098176
 11
4.875
 21
11.9444774444
  0
LINE
  5
26B
100
AcDbEntity
  8
0
100
AcDbLine
 62
7
  6
BYLAYER
 10
4.875
 20
11.8804971419
 11
4.875
 21
11.5416996667
  0
LINE
  5
26C
100
AcDbEntity
  8
0
100
AcDbLine
 62
7
  6
BYLAYER
 10
7.1527777778
 20
12.1528107778
 11
7.2638888889
 21
12.1528107778
  0
LINE
  5
26D
100
AcDbEntity
  8
0
100
AcDbLine
 62
7
  6
BYLAYER
 10
5.9444444444
 20
12.1007274444
 11
6.0134583331
 21
12.0916128611
  0
LINE
  5
26E
100
AcDbEntity
  8
0
100
AcDbLine
 62
7
  6
BYLAYER
 10
6.4275416649
 20
12.0369253611
 11
6.4965555536
 21
12.0278107778
  0
LINE
  5
26F
100
AcDbEntity
  8
0
100
AcDbLine
 62
7
  6
BYLAYER
 10
5.1527777778
 20
11.5416996667
 11
5.1527777778
 21
11.8804971419
  0
LINE
  5
270
100
AcDbEntity
  8
0
100
AcDbLine
 62
7
  6
BYLAYER
 10
5.1527777778
 20
11.9444774444
 11
5.1527777778
 21
11.9572098176
  0
LINE
  5
271
100
AcDbEntity
  8
0
100
AcDbLine
 62
7
  6
BYLAYER
 10
5.1666666667
 20
11.9444774444
 11
5.1666666667
 21
11.5416996667
  0
LINE
  5
272
100
AcDbEntity
  8
0
100
AcDbLine
 62
7
  6
BYLAYER
 10
5.7618055556
 20
13.472255222
 11
5.7618055556
 21
11.9444774447
  0
LINE
  5
273
100
AcDbEntity
  8
0
100
AcDbLine
 62
7
  6
BYLAYER
 10
5.8340277778
 20
12.0017691111
 11
5.8340277778
 21
13.4149635556
  0
LINE
  5
274
100
AcDbEntity
  8
0
100
AcDbLine
 62
7
  6
BYLAYER
 10
5.8722222222
 20
12.0399635556
 11
5.8722222222
 21
13.3767691111
  0
LINE
  5
275
100
AcDbEntity
  8
0
100
AcDbLine
 62
7
  6
BYLAYER
 10
5.9444444444
 20
13.3767691111
 11
5.9444444444
 21
12.0399635556
  0
LINE
  5
276
100
AcDbEntity
  8
0
100
AcDbLine
 62
7
  6
BYLAYER
 10
6.0134583331
 20
13.3251198056
 11
6.0134583331
 21
13.222755174
  0
LINE
  5
277
100
AcDbEntity
  8
0
100
AcDbLine
 62
7
  6
BYLAYER
 10
6.0134583331
 20
12.1939774926
 11
6.0134583331
 21
12.0916128611
  0
LINE
  5
278
100
AcDbEntity
  8
0
100
AcDbLine
 62
7
  6
BYLAYER
 10
5.9444444444
 20
13.3160052222
 11
6.0134583331
 21
13.3251198056
  0
LINE
  5
279
100
AcDbEntity
  8
0
100
AcDbLine
 62
7
  6
BYLAYER
 10
7.1557650391
 20
13.2639218889
 11
7.2638888889
 21
13.2639218889
  0
LINE
  5
27A
100
AcDbEntity
  8
0
100
AcDbLine
 62
7
  6
BYLAYER
 10
5.9444444444
 20
13.3767691111
 11
5.8722222222
 21
13.3767691111
  0
LINE
  5
27B
100
AcDbEntity
  8
0
100
AcDbLine
 62
7
  6
BYLAYER
 10
5.8340277778
 20
13.4149635556
 11
5.7618055556
 21
13.4149635556
  0
LINE
  5
27C
100
AcDbEntity
  8
0
100
AcDbLine
 62
7
  6
BYLAYER
 10
3.8083333333
 20
13.4149635556
 11
3.7916666667
 21
13.4149635556
  0
LINE
  5
27D
100
AcDbEntity
  8
0
100
AcDbLine
 62
7
  6
BYLAYER
 10
3.8083333333
 20
13.4722552222
 11
5.7618055556
 21
13.4722552222
  0
LINE
  5
27E
100
AcDbEntity
  8
0
100
AcDbLine
 62
7
  6
BYLAYER
 10
5.8722222222
 20
13.3767691111
 11
5.8340277778
 21
13.4149635556
  0
LINE
  5
27F
100
AcDbEntity
  8
0
100
AcDbLine
 62
7
  6
BYLAYER
 10
5.8722222222
 20
12.0399635556
 11
5.8340277778
 21
12.0017691111
  0
LINE
  5
280
100
AcDbEntity
  8
0
100
AcDbLine
 62
7
  6
BYLAYER
 10
7.1527777778
 20
13.0992495769
 11
7.0543152505
 21
13.1256325316
  0
LINE
  5
281
100
AcDbEntity
  8
0
100
AcDbLine
 62
7
  6
BYLAYER
 10
6.4275416649
 20
12.1295364679
 11
6.4275416649
 21
12.0369253611
  0
LINE
  5
282
100
AcDbEntity
  8
0
100
AcDbLine
 62
7
  6
BYLAYER
 10
6.4965555556
 20
11.867179047
 11
6.4965555556
 21
13.0336076885
  0
LINE
  5
283
100
AcDbEntity
  8
0
100
AcDbLine
 62
7
  6
BYLAYER
 10
6.9548888889
 20
13.051523371
 11
6.9548888889
 21
11.9305885564
  0
LINE
  5
284
100
AcDbEntity
  8
0
100
AcDbLine
 62
7
  6
BYLAYER
 10
6.9583333333
 20
12.000033
 11
6.9583333333
 21
12.746926783
  0
LINE
  5
285
100
AcDbEntity
  8
0
100
AcDbLine
 62
7
  6
BYLAYER
 10
7.1527777778
 20
12.1528107778
 11
7.1527777778
 21
13.257814619
  0
LINE
  5
286
100
AcDbEntity
  8
0
100
AcDbLine
 62
7
  6
BYLAYER
 10
7.2638888889
 20
12.1528107778
 11
7.2638888889
 21
13.2639218889
  0
LINE
  5
287
100
AcDbEntity
  8
0
100
AcDbLine
 62
7
  6
BYLAYER
 10
15.2638888889
 20
4.4259971111
 11
15.2638888889
 21
4.1482193333
  0
LINE
  5
288
100
AcDbEntity
  8
0
100
AcDbLine
 62
7
  6
BYLAYER
 10
15.2916666667
 20
4.1204415556
 11
15.3065497059
 21
4.1039393647
  0
LINE
  5
289
100
AcDbEntity
  8
0
100
AcDbLine
 62
7
  6
BYLAYER
 10
15.7638888889
 20
3.6137748889
 11
15.7638888889
 21
3.5926637778
  0
LINE
  5
28A
100
AcDbEntity
  8
0
100
AcDbLine
 62
7
  6
BYLAYER
 10
15.5007743628
 20
4.309032153
 11
15.2916666667
 21
4.1204415556
  0
LINE
  5
28B
100
AcDbEntity
  8
0
100
AcDbLine
 62
7
  6
BYLAYER
 10
15.3065497059
 20
4.1039393647
 11
15.5002943779
 21
4.2786743176
  0
LINE
  5
28C
100
AcDbEntity
  8
0
100
AcDbLine
 62
7
  6
BYLAYER
 10
15.7638888889
 20
3.5926637778
 11
15.7987117277
 21
3.5926637778
  0
LINE
  5
28D
100
AcDbEntity
  8
0
100
AcDbLine
 62
7
  6
BYLAYER
 10
17.1179386178
 20
3.5926637778
 11
17.1527777778
 21
3.5926637778
  0
LINE
  5
28E
100
AcDbEntity
  8
0
100
AcDbLine
 62
7
  6
BYLAYER
 10
17.1527777778
 20
3.6137748889
 11
17.1398486638
 21
3.6137748889
  0
LINE
  5
28F
100
AcDbEntity
  8
0
100
AcDbLine
 62
7
  6
BYLAYER
 10
15.7768672757
 20
3.6137748889
 11
15.7638888889
 21
3.6137748889
  0
LINE
  5
290
100
AcDbEntity
  8
0
100
AcDbLine
 62
7
  6
BYLAYER
 10
15.5151961914
 20
4.1204415556
 11
15.3248471988
 21
4.1204415556
  0
LINE
  5
291
100
AcDbEntity
  8
0
100
AcDbLine
 62
7
  6
BYLAYER
 10
15.2916666667
 20
4.4537748889
 11
15.5174376188
 21
4.4537748889
  0
LINE
  5
292
100
AcDbEntity
  8
0
100
AcDbLine
 62
7
  6
BYLAYER
 10
16.7361111111
 20
5.0648859997
 11
16.7361111111
 21
5.1759971111
  0
LINE
  5
293
100
AcDbEntity
  8
0
100
AcDbLine
 62
7
  6
BYLAYER
 10
16.9861111111
 20
5.0320188898
 11
16.9861111111
 21
4.9069198878
  0
LINE
  5
294
100
AcDbEntity
  8
0
100
AcDbLine
 62
7
  6
BYLAYER
 10
17.1527777778
 20
3.5926637778
 11
17.1527777778
 21
3.6137748889
  0
LINE
  5
295
100
AcDbEntity
  8
0
100
AcDbLine
 62
7
  6
BYLAYER
 10
17.7361111111
 20
5.0648859997
 11
16.7361111111
 21
5.0648859997
  0
LINE
  5
296
100
AcDbEntity
  8
0
100
AcDbLine
 62
7
  6
BYLAYER
 10
17.7361111111
 20
5.1759971111
 11
16.7361111111
 21
5.1759971111
  0
LINE
  5
297
100
AcDbEntity
  8
0
100
AcDbLine
 62
7
  6
BYLAYER
 10
17.4861111111
 20
5.0320188898
 11
17.4861111111
 21
4.564886
  0
LINE
  5
298
100
AcDbEntity
  8
0
100
AcDbLine
 62
7
  6
BYLAYER
 10
17.7361111111
 20
5.0648859997
 11
17.7361111111
 21
5.1759971111
  0
LINE
  5
299
100
AcDbEntity
  8
0
100
AcDbLine
 62
7
  6
BYLAYER
 10
15.5602667258
 20
11.5247597282
 11
15.5667064985
 21
11.5116368511
  0
LINE
  5
29A
100
AcDbEntity
  8
0
100
AcDbLine
 62
7
  6
BYLAYER
 10
15.9353479018
 20
11.4592935706
 11
15.7306676809
 21
11.4592935706
  0
LINE
  5
29B
100
AcDbEntity
  8
0
100
AcDbLine
 62
7
  6
BYLAYER
 10
15.7007635247
 20
11.4698044048
 11
15.7090099708
 21
11.4698044048
  0
LINE
  5
29C
100
AcDbEntity
  8
0
100
AcDbLine
 62
7
  6
BYLAYER
 10
15.9569922732
 20
11.4698044048
 11
15.9821988284
 21
11.4698044048
  0
LINE
  5
29D
100
AcDbEntity
  8
0
100
AcDbLine
 62
7
  6
BYLAYER
 10
15.5667064985
 20
11.5116368511
 11
15.6876704993
 21
11.5116368511
  0
LINE
  5
29E
100
AcDbEntity
  8
0
100
AcDbLine
 62
7
  6
BYLAYER
 10
15.9898412052
 20
11.5116368511
 11
16.6668626858
 21
11.5116368511
  0
LINE
  5
29F
100
AcDbEntity
  8
0
100
AcDbLine
 62
7
  6
BYLAYER
 10
15.5602667258
 20
11.5247597282
 11
15.6812307266
 21
11.5247597282
  0
LINE
  5
2A0
100
AcDbEntity
  8
0
100
AcDbLine
 62
7
  6
BYLAYER
 10
15.9895185332
 20
11.5247597282
 11
16.6604229131
 21
11.5247597282
  0
LINE
  5
2A1
100
AcDbEntity
  8
0
100
AcDbLine
 62
7
  6
BYLAYER
 10
15.7057306905
 20
11.4748340509
 11
15.6209968387
 21
11.6475034865
  0
LINE
  5
2A2
100
AcDbEntity
  8
0
100
AcDbLine
 62
7
  6
BYLAYER
 10
15.9821988284
 20
11.4698044048
 11
15.9908353701
 21
11.4712047635
  0
LINE
  5
2A3
100
AcDbEntity
  8
0
100
AcDbLine
 62
7
  6
BYLAYER
 10
14.9626613777
 20
11.7233985718
 11
15.6365317072
 21
11.7233985718
  0
LINE
  5
2A4
100
AcDbEntity
  8
0
100
AcDbLine
 62
7
  6
BYLAYER
 10
16.0374524036
 20
11.7233985718
 11
16.7619284445
 21
11.7233985718
  0
LINE
  5
2A5
100
AcDbEntity
  8
0
100
AcDbLine
 62
7
  6
BYLAYER
 10
16.8284495163
 20
11.7806902385
 11
16.7619284445
 21
11.7806902385
  0
LINE
  5
2A6
100
AcDbEntity
  8
0
100
AcDbLine
 62
7
  6
BYLAYER
 10
16.930150001
 20
11.8188846829
 11
16.8636289292
 21
11.8188846829
  0
LINE
  5
2A7
100
AcDbEntity
  8
0
100
AcDbLine
 62
7
  6
BYLAYER
 10
15.6879452966
 20
11.9911140407
 11
15.6902534644
 21
11.897242242
  0
LINE
  5
2A8
100
AcDbEntity
  8
0
100
AcDbLine
 62
7
  6
BYLAYER
 10
15.7003713157
 20
11.4857553085
 11
15.7007635247
 21
11.4698044048
  0
LINE
  5
2A9
100
AcDbEntity
  8
0
100
AcDbLine
 62
7
  6
BYLAYER
 10
18.0430987021
 20
11.9317319052
 11
18.1454388126
 21
11.9317319052
  0
LINE
  5
2AA
100
AcDbEntity
  8
0
100
AcDbLine
 62
7
  6
BYLAYER
 10
15.7269274903
 20
11.9665231958
 11
15.9316077112
 21
11.9665231958
  0
LINE
  5
2AB
100
AcDbEntity
  8
0
100
AcDbLine
 62
7
  6
BYLAYER
 10
15.6879452966
 20
11.9911140407
 11
15.9693806003
 21
11.9911140407
  0
LINE
  5
2AC
100
AcDbEntity
  8
0
100
AcDbLine
 62
7
  6
BYLAYER
 10
15.6965818383
 20
11.9925143995
 11
15.978017142
 21
11.9925143995
  0
LINE
  5
2AD
100
AcDbEntity
  8
0
100
AcDbLine
 62
7
  6
BYLAYER
 10
15.7394142486
 20
12.0069303606
 11
15.9440944695
 21
12.0069303606
  0
LINE
  5
2AE
100
AcDbEntity
  8
0
100
AcDbLine
 62
7
  6
BYLAYER
 10
16.9169373398
 20
11.880596578
 11
17.2318668043
 21
11.8353690014
  0
LINE
  5
2AF
100
AcDbEntity
  8
0
100
AcDbLine
 62
7
  6
BYLAYER
 10
15.978017142
 20
11.9925143995
 11
15.9693806003
 21
11.9911140407
  0
LINE
  5
2B0
100
AcDbEntity
  8
0
100
AcDbLine
 62
7
  6
BYLAYER
 10
15.6965818383
 20
11.9925143995
 11
15.6879452966
 21
11.9911140407
  0
LINE
  5
2B1
100
AcDbEntity
  8
02___PRT_ALL_AXES
100
AcDbLine
 62
7
  6
BYLAYER
 10
18.3285345312
 20
12.3041856709
 11
18.3306835802
 21
12.3045063099
  0
LINE
  5
2B2
100
AcDbEntity
  8
02___PRT_ALL_AXES
100
AcDbLine
 62
7
  6
BYLAYER
 10
18.3284785424
 20
12.4019633429
 11
18.3263294934
 21
12.4016427039
  0
LINE
  5
2B3
100
AcDbEntity
  8
0
100
AcDbLine
 62
7
  6
BYLAYER
 10
15.9582105368
 20
11.9251299632
 11
15.9683885166
 21
11.5111976374
  0
LINE
  5
2B4
100
AcDbEntity
  8
0
100
AcDbLine
 62
7
  6
BYLAYER
 10
15.9693806003
 20
11.9911140407
 11
15.9821988284
 21
11.4698044048
  0
LINE
  5
2B5
100
AcDbEntity
  8
0
100
AcDbLine
 62
7
  6
BYLAYER
 10
15.9908353701
 20
11.4712047635
 11
15.978017142
 21
11.9925143995
  0
LINE
  5
2B6
100
AcDbEntity
  8
0
100
AcDbLine
 62
7
  6
BYLAYER
 10
15.6216507712
 20
11.7233985718
 11
15.5602667258
 21
11.5247597282
  0
LINE
  5
2B7
100
AcDbEntity
  8
0
100
AcDbLine
 62
7
  6
BYLAYER
 10
15.720595003
 20
11.9954274967
 11
15.7196947878
 21
11.9925143995
  0
LINE
  5
2B8
100
AcDbEntity
  8
0
100
AcDbLine
 62
7
  6
BYLAYER
 10
15.704947016
 20
11.9447905924
 11
15.6193943612
 21
11.6679420999
  0
LINE
  5
2B9
100
AcDbEntity
  8
02___PRT_ALL_AXES
100
AcDbLine
 62
7
  6
BYLAYER
 10
17.9623990828
 20
12.5726115785
 11
17.9645481318
 21
12.5729322175
  0
LINE
  5
2BA
100
AcDbEntity
  8
02___PRT_ALL_AXES
100
AcDbLine
 62
7
  6
BYLAYER
 10
17.9623430939
 20
12.6703892506
 11
17.9601940449
 21
12.6700686116
  0
LINE
  5
2BB
100
AcDbEntity
  8
0
100
AcDbLine
 62
7
  6
BYLAYER
 10
16.6604229131
 20
11.5247597282
 11
16.6668626858
 21
11.5116368511
  0
LINE
  5
2BC
100
AcDbEntity
  8
0
100
AcDbLine
 62
7
  6
BYLAYER
 10
16.0630880115
 20
11.8063554294
 11
15.9885272023
 21
11.5650765623
  0
LINE
  5
2BD
100
AcDbEntity
  8
0
100
AcDbLine
 62
7
  6
BYLAYER
 10
15.9658017612
 20
11.4915370081
 11
15.9618873697
 21
11.4788700325
  0
LINE
  5
2BE
100
AcDbEntity
  8
0
100
AcDbLine
 62
7
  6
BYLAYER
 10
16.9169373398
 20
13.0939783435
 11
17.277730724
 21
13.1457925186
  0
LINE
  5
2BF
100
AcDbEntity
  8
0
100
AcDbLine
 62
7
  6
BYLAYER
 10
18.0430987021
 20
13.0428430163
 11
18.1454388126
 21
13.0428430163
  0
LINE
  5
2C0
100
AcDbEntity
  8
0
100
AcDbLine
 62
7
  6
BYLAYER
 10
17.2378417012
 20
11.8222952225
 11
17.2205049922
 21
11.8602299857
  0
LINE
  5
2C1
100
AcDbEntity
  8
0
100
AcDbLine
 62
7
  6
BYLAYER
 10
16.930150001
 20
13.1556902385
 11
16.8636289292
 21
13.1556902385
  0
LINE
  5
2C2
100
AcDbEntity
  8
0
100
AcDbLine
 62
7
  6
BYLAYER
 10
16.8284495163
 20
13.1938846829
 11
16.7619284445
 21
13.1938846829
  0
LINE
  5
2C3
100
AcDbEntity
  8
0
100
AcDbLine
 62
7
  6
BYLAYER
 10
16.7218069585
 20
11.7233985718
 11
16.6604229131
 21
11.5247597282
  0
LINE
  5
2C4
100
AcDbEntity
  8
0
100
AcDbLine
 62
7
  6
BYLAYER
 10
16.6668626858
 20
11.5116368511
 11
16.732302007
 21
11.7233985718
  0
LINE
  5
2C5
100
AcDbEntity
  8
0
100
AcDbLine
 62
7
  6
BYLAYER
 10
14.9626613777
 20
13.2511763496
 11
16.7619284445
 21
13.2511763496
  0
LINE
  5
2C6
100
AcDbEntity
  8
0
100
AcDbLine
 62
7
  6
BYLAYER
 10
16.8787593829
 20
11.7928686423
 11
16.8750142705
 21
11.7807494542
  0
LINE
  5
2C7
100
AcDbEntity
  8
0
100
AcDbLine
 62
7
  6
BYLAYER
 10
16.9729987549
 20
11.8728327811
 11
17.0898673815
 21
12.2510197954
  0
LINE
  5
2C8
100
AcDbEntity
  8
0
100
AcDbLine
 62
7
  6
BYLAYER
 10
17.1019979148
 20
13.4288125633
 11
17.1358914556
 21
13.3597447889
  0
LINE
  5
2C9
100
AcDbEntity
  8
02__ASM_ALL_AXES
100
AcDbLine
 62
7
  6
BYLAYER
 10
17.9727193265
 20
12.2816379198
 11
17.9731279693
 21
12.2793896776
  0
LINE
  5
2CA
100
AcDbEntity
  8
02__ASM_ALL_AXES
100
AcDbLine
 62
7
  6
BYLAYER
 10
17.9698888953
 20
12.2981012877
 11
17.9706360455
 21
12.2935929435
  0
LINE
  5
2CB
100
AcDbEntity
  8
02__ASM_ALL_AXES
100
AcDbLine
 62
7
  6
BYLAYER
 10
17.9580745352
 20
12.5739926646
 11
17.9579994414
 21
12.5729156897
  0
LINE
  5
2CC
100
AcDbEntity
  8
0
100
AcDbLine
 62
7
  6
BYLAYER
 10
17.9466667841
 20
13.4100039882
 11
17.961711129
 21
13.3793468366
  0
LINE
  5
2CD
100
AcDbEntity
  8
02__ASM_ALL_AXES
100
AcDbLine
 62
7
  6
BYLAYER
 10
18.3221147928
 20
12.3051448531
 11
18.3223787731
 21
12.3068425403
  0
LINE
  5
2CE
100
AcDbEntity
  8
0
100
AcDbLine
 62
7
  6
BYLAYER
 10
17.9997295683
 20
13.8693552722
 11
18.0336231091
 21
13.8002874978
  0
ARC
  5
2CF
100
AcDbEntity
  8
0
100
AcDbCircle
 62
7
  6
BYLAYER
 10
6.7083333333
 20
4.846856732
 40
0.25
100
AcDbArc
 50
66.95268684
 51
123.2222202265
  0
ARC
  5
2D0
100
AcDbEntity
  8
0
100
AcDbCircle
 62
7
  6
BYLAYER
 10
6.7083333333
 20
4.846856732
 40
0.25
100
AcDbArc
 50
358.3862584341
 51
9.5219767524
  0
ARC
  5
2D1
100
AcDbEntity
  8
0
100
AcDbCircle
 62
7
  6
BYLAYER
 10
6.7083333333
 20
3.5772488889
 40
0.25
100
AcDbArc
 50
212.1011655523
 51
336.1824315593
  0
ARC
  5
2D2
100
AcDbEntity
  8
0
100
AcDbCircle
 62
7
  6
BYLAYER
 10
6.7083333333
 20
3.5772488889
 40
0.25
100
AcDbArc
 50
350.4780232476
 51
0.8755613836
  0
ARC
  5
2D3
100
AcDbEntity
  8
0
100
AcDbCircle
 62
7
  6
BYLAYER
 10
7.1582008366
 20
4.8542595616
 40
0.2033119477
100
AcDbArc
 50
190.5143900334
 51
220.9051461514
  0
ARC
  5
2D4
100
AcDbEntity
  8
0
100
AcDbCircle
 62
7
  6
BYLAYER
 10
7.1582008366
 20
3.7169048829
 40
0.2033119477
100
AcDbArc
 50
139.0948538486
 51
169.9949813846
  0
ARC
  5
2D5
100
AcDbEntity
  8
0
100
AcDbCircle
 62
7
  6
BYLAYER
 10
3.7916666667
 20
3.6345405556
 40
0.0555555556
100
AcDbArc
 50
180.0
 51
196.3348227807
  0
ARC
  5
2D6
100
AcDbEntity
  8
0
100
AcDbCircle
 62
7
  6
BYLAYER
 10
3.7916666667
 20
4.9366238889
 40
0.0555555556
100
AcDbArc
 50
90.0
 51
180.0
  0
ARC
  5
2D7
100
AcDbEntity
  8
0
100
AcDbCircle
 62
7
  6
BYLAYER
 10
6.9181449519
 20
5.06336
 40
0.036743937
100
AcDbArc
 50
0.0
 51
95.0
  0
ARC
  5
2D8
100
AcDbEntity
  8
0
100
AcDbCircle
 62
7
  6
BYLAYER
 10
6.9181449519
 20
3.5078044444
 40
0.036743937
100
AcDbArc
 50
300.9505799505
 51
360.0
  0
ARC
  5
2D9
100
AcDbEntity
  8
0
100
AcDbCircle
 62
7
  6
BYLAYER
 10
6.9916666667
 20
5.0304928898
 40
0.0333333333
100
AcDbArc
 50
99.5940682269
 51
180.0
  0
ARC
  5
2DA
100
AcDbEntity
  8
0
100
AcDbCircle
 62
7
  6
BYLAYER
 10
7.0255330485
 20
4.73931826
 40
0.0277777778
100
AcDbArc
 50
220.9051461514
 51
255.0
  0
ARC
  5
2DB
100
AcDbEntity
  8
0
100
AcDbCircle
 62
7
  6
BYLAYER
 10
7.0255330485
 20
3.8318461845
 40
0.0277777778
100
AcDbArc
 50
105.0
 51
139.0948538486
  0
ARC
  5
2DC
100
AcDbEntity
  8
0
100
AcDbCircle
 62
7
  6
BYLAYER
 10
4.9027777778
 20
4.4244711111
 40
0.0277777778
100
AcDbArc
 50
90.0
 51
180.0
  0
ARC
  5
2DD
100
AcDbEntity
  8
0
100
AcDbCircle
 62
7
  6
BYLAYER
 10
5.125
 20
4.4244711111
 40
0.0277777778
100
AcDbArc
 50
0.0
 51
90.0
  0
ARC
  5
2DE
100
AcDbEntity
  8
0
100
AcDbCircle
 62
7
  6
BYLAYER
 10
4.9027777778
 20
4.1466933333
 40
0.0277777778
100
AcDbArc
 50
180.0
 51
270.0
  0
ARC
  5
2DF
100
AcDbEntity
  8
0
100
AcDbCircle
 62
7
  6
BYLAYER
 10
5.125
 20
4.1466933333
 40
0.0277777778
100
AcDbArc
 50
270.0
 51
360.0
  0
ARC
  5
2E0
100
AcDbEntity
  8
0
100
AcDbCircle
 62
7
  6
BYLAYER
 10
3.7916666667
 20
12.0573246667
 40
0.0555555556
100
AcDbArc
 50
180.0
 51
270.0
  0
ARC
  5
2E1
100
AcDbEntity
  8
0
100
AcDbCircle
 62
7
  6
BYLAYER
 10
5.125
 20
11.5416996667
 40
0.0277777778
100
AcDbArc
 50
270.0
 51
360.0
  0
ARC
  5
2E2
100
AcDbEntity
  8
0
100
AcDbCircle
 62
7
  6
BYLAYER
 10
4.9027777778
 20
11.5416996667
 40
0.0277777778
100
AcDbArc
 50
180.0
 51
270.0
  0
ARC
  5
2E3
100
AcDbEntity
  8
0
100
AcDbCircle
 62
7
  6
BYLAYER
 10
3.7916666667
 20
13.359408
 40
0.0555555556
100
AcDbArc
 50
90.0
 51
180.0
  0
ARC
  5
2E4
100
AcDbEntity
  8
0
100
AcDbCircle
 62
7
  6
BYLAYER
 10
6.7083333333
 20
12.000033
 40
0.25
100
AcDbArc
 50
350.4780232476
 51
360.0
  0
ARC
  5
2E5
100
AcDbEntity
  8
0
100
AcDbCircle
 62
7
  6
BYLAYER
 10
6.7083333333
 20
12.000033
 40
0.25
100
AcDbArc
 50
212.1011655523
 51
336.1824315593
  0
ARC
  5
2E6
100
AcDbEntity
  8
0
100
AcDbCircle
 62
7
  6
BYLAYER
 10
7.1582008366
 20
12.139688994
 40
0.2033119477
100
AcDbArc
 50
139.0948538486
 51
169.5001818997
  0
ARC
  5
2E7
100
AcDbEntity
  8
0
100
AcDbCircle
 62
7
  6
BYLAYER
 10
6.9181449519
 20
11.9305885556
 40
0.036743937
100
AcDbArc
 50
300.9505799505
 51
360.0
  0
ARC
  5
2E8
100
AcDbEntity
  8
0
100
AcDbCircle
 62
7
  6
BYLAYER
 10
7.0255330485
 20
12.2546302956
 40
0.0277777778
100
AcDbArc
 50
105.0
 51
139.0948538486
  0
CIRCLE
  5
2E9
100
AcDbEntity
  8
0
100
AcDbCircle
 62
7
  6
BYLAYER
 10
6.7083333333
 20
13.4861441111
 40
0.5
  0
CIRCLE
  5
2EA
100
AcDbEntity
  8
02__ASM_ALL_AXES
100
AcDbCircle
 62
7
  6
BYLAYER
 10
6.7083333333
 20
13.4861441111
 40
0.4166666667
  0
CIRCLE
  5
2EB
100
AcDbEntity
  8
0
100
AcDbCircle
 62
7
  6
BYLAYER
 10
6.7083333333
 20
13.4861441111
 40
0.2222222222
  0
CIRCLE
  5
2EC
100
AcDbEntity
  8
02___PRT_ALL_AXES
100
AcDbCircle
 62
7
  6
BYLAYER
 10
7.0932831385
 20
13.326692681
 40
0.0416666667
  0
CIRCLE
  5
2ED
100
AcDbEntity
  8
02___PRT_ALL_AXES
100
AcDbCircle
 62
7
  6
BYLAYER
 10
6.8677847635
 20
13.1011943059
 40
0.0416666667
  0
CIRCLE
  5
2EE
100
AcDbEntity
  8
02___PRT_ALL_AXES
100
AcDbCircle
 62
7
  6
BYLAYER
 10
6.5488819032
 20
13.1011943059
 40
0.0416666667
  0
CIRCLE
  5
2EF
100
AcDbEntity
  8
02___PRT_ALL_AXES
100
AcDbCircle
 62
7
  6
BYLAYER
 10
6.3233835281
 20
13.326692681
 40
0.0416666667
  0
CIRCLE
  5
2F0
100
AcDbEntity
  8
02___PRT_ALL_AXES
100
AcDbCircle
 62
7
  6
BYLAYER
 10
6.3233835281
 20
13.6455955413
 40
0.0416666667
  0
CIRCLE
  5
2F1
100
AcDbEntity
  8
02___PRT_ALL_AXES
100
AcDbCircle
 62
7
  6
BYLAYER
 10
6.5488819032
 20
13.8710939163
 40
0.0416666667
  0
CIRCLE
  5
2F2
100
AcDbEntity
  8
02___PRT_ALL_AXES
100
AcDbCircle
 62
7
  6
BYLAYER
 10
6.8677847635
 20
13.8710939163
 40
0.0416666667
  0
CIRCLE
  5
2F3
100
AcDbEntity
  8
02___PRT_ALL_AXES
100
AcDbCircle
 62
7
  6
BYLAYER
 10
7.0932831385
 20
13.6455955413
 40
0.0416666667
  0
ARC
  5
2F4
100
AcDbEntity
  8
0
100
AcDbCircle
 62
7
  6
BYLAYER
 10
18.1994107686
 20
-63.7616923093
 40
77.9429444599
100
AcDbArc
 50
98.8098537628
 51
98.994782474
  0
ARC
  5
2F5
100
AcDbEntity
  8
0
100
AcDbCircle
 62
7
  6
BYLAYER
 10
19.0335223179
 20
94.4953169254
 40
83.3248614677
100
AcDbArc
 50
261.0103147116
 51
261.2984739663
  0
ARC
  5
2F6
100
AcDbEntity
  8
0
100
AcDbCircle
 62
7
  6
BYLAYER
 10
16.3112745098
 20
4.2871082222
 40
0.8112745098
100
AcDbArc
 50
86.0090119349
 51
180.0
  0
ARC
  5
2F7
100
AcDbEntity
  8
0
100
AcDbCircle
 62
7
  6
BYLAYER
 10
16.2727438137
 20
4.1451868248
 40
0.7496898083
100
AcDbArc
 50
70.5749920178
 51
74.8107132628
  0
ARC
  5
2F8
100
AcDbEntity
  8
0
100
AcDbCircle
 62
7
  6
BYLAYER
 10
16.3112745098
 20
4.2871082222
 40
0.6026309848
100
AcDbArc
 50
74.8107132628
 51
180.0
  0
ARC
  5
2F9
100
AcDbEntity
  8
0
100
AcDbCircle
 62
7
  6
BYLAYER
 10
16.3112745098
 20
4.2871082222
 40
0.5199180348
100
AcDbArc
 50
101.8696427434
 51
180.0
  0
CIRCLE
  5
2FA
100
AcDbEntity
  8
02___PRT_ALL_AXES
100
AcDbCircle
 62
7
  6
BYLAYER
 10
16.0066588952
 20
4.1000185442
 40
0.0488888889
  0
CIRCLE
  5
2FB
100
AcDbEntity
  8
02___PRT_ALL_AXES
100
AcDbCircle
 62
7
  6
BYLAYER
 10
16.2712436553
 20
3.8354337841
 40
0.0488888889
  0
ARC
  5
2FC
100
AcDbEntity
  8
0
100
AcDbCircle
 62
7
  6
BYLAYER
 10
15.2916666667
 20
4.4259971111
 40
0.0277777778
100
AcDbArc
 50
90.0
 51
180.0
  0
ARC
  5
2FD
100
AcDbEntity
  8
0
100
AcDbCircle
 62
7
  6
BYLAYER
 10
15.2916666667
 20
4.1482193333
 40
0.0277777778
100
AcDbArc
 50
180.0
 51
270.0
  0
ARC
  5
2FE
100
AcDbEntity
  8
0
100
AcDbCircle
 62
7
  6
BYLAYER
 10
15.9375
 20
4.564886
 40
1.5486111111
100
AcDbArc
 50
331.9275130641
 51
360.0
  0
ARC
  5
2FF
100
AcDbEntity
  8
0
100
AcDbCircle
 62
7
  6
BYLAYER
 10
15.9375
 20
4.564886
 40
1.3399675861
100
AcDbArc
 50
331.9275130641
 51
345.3020857431
  0
ARC
  5
300
100
AcDbEntity
  8
0
100
AcDbCircle
 62
7
  6
BYLAYER
 10
15.9375
 20
4.564886
 40
1.2572546361
100
AcDbArc
 50
331.9275130641
 51
358.7830828449
  0
CIRCLE
  5
301
100
AcDbEntity
  8
02___PRT_ALL_AXES
100
AcDbCircle
 62
7
  6
BYLAYER
 10
16.2712436553
 20
4.7387826603
 40
0.0488888889
  0
CIRCLE
  5
302
100
AcDbEntity
  8
02___PRT_ALL_AXES
100
AcDbCircle
 62
7
  6
BYLAYER
 10
16.0066588952
 20
4.4741979003
 40
0.0488888889
  0
ARC
  5
303
100
AcDbEntity
  8
0
100
AcDbCircle
 62
7
  6
BYLAYER
 10
16.4583333333
 20
4.2871082222
 40
0.9583333333
100
AcDbArc
 50
180.0
 51
331.9275130642
  0
ARC
  5
304
100
AcDbEntity
  8
0
100
AcDbCircle
 62
7
  6
BYLAYER
 10
16.4583333333
 20
4.2871082222
 40
0.8145217148
100
AcDbArc
 50
38.0013584452
 51
146.1535751804
  0
ARC
  5
305
100
AcDbEntity
  8
0
100
AcDbCircle
 62
7
  6
BYLAYER
 10
16.4583333333
 20
4.2871082222
 40
0.8092897905
100
AcDbArc
 50
180.0
 51
331.9275130641
  0
ARC
  5
306
100
AcDbEntity
  8
0
100
AcDbCircle
 62
7
  6
BYLAYER
 10
16.4583333333
 20
4.2871082222
 40
0.7496898083
100
AcDbArc
 50
180.0
 51
331.9275130641
  0
ARC
  5
307
100
AcDbEntity
  8
0
100
AcDbCircle
 62
7
  6
BYLAYER
 10
16.4583333333
 20
4.2871082222
 40
0.6669768583
100
AcDbArc
 50
180.0
 51
331.9275130641
  0
CIRCLE
  5
308
100
AcDbEntity
  8
0
100
AcDbCircle
 62
7
  6
BYLAYER
 10
16.4583333333
 20
4.2871082222
 40
0.5555555556
  0
CIRCLE
  5
309
100
AcDbEntity
  8
02__ASM_ALL_AXES
100
AcDbCircle
 62
7
  6
BYLAYER
 10
16.4583333333
 20
4.2871082222
 40
0.4888888889
  0
CIRCLE
  5
30A
100
AcDbEntity
  8
0
100
AcDbCircle
 62
7
  6
BYLAYER
 10
16.4583333333
 20
4.2871082222
 40
0.2777777778
  0
CIRCLE
  5
30B
100
AcDbEntity
  8
02___PRT_ALL_AXES
100
AcDbCircle
 62
7
  6
BYLAYER
 10
16.6454230114
 20
3.8354337841
 40
0.0488888889
  0
CIRCLE
  5
30C
100
AcDbEntity
  8
02___PRT_ALL_AXES
100
AcDbCircle
 62
7
  6
BYLAYER
 10
16.9100077714
 20
4.1000185442
 40
0.0488888889
  0
CIRCLE
  5
30D
100
AcDbEntity
  8
02___PRT_ALL_AXES
100
AcDbCircle
 62
7
  6
BYLAYER
 10
16.6454230114
 20
4.7387826603
 40
0.0488888889
  0
CIRCLE
  5
30E
100
AcDbEntity
  8
02___PRT_ALL_AXES
100
AcDbCircle
 62
7
  6
BYLAYER
 10
16.9100077714
 20
4.4741979003
 40
0.0488888889
  0
ARC
  5
30F
100
AcDbEntity
  8
0
100
AcDbCircle
 62
7
  6
BYLAYER
 10
17.5194444444
 20
5.0320188898
 40
0.0333333333
100
AcDbArc
 50
99.5940682269
 51
180.0
  0
ARC
  5
310
100
AcDbEntity
  8
0
100
AcDbCircle
 62
7
  6
BYLAYER
 10
16.9527777778
 20
5.0320188898
 40
0.0333333333
100
AcDbArc
 50
0.0
 51
80.4059317731
  0
ARC
  5
311
100
AcDbEntity
  8
0
100
AcDbCircle
 62
7
  6
BYLAYER
 10
27.46660237
 20
88.4926334604
 40
76.9445386937
100
AcDbArc
 50
262.0055708231
 51
262.280538474
  0
ARC
  5
312
100
AcDbEntity
  8
0
100
AcDbCircle
 62
7
  6
BYLAYER
 10
27.2294677366
 20
84.8835325868
 40
73.7275894227
100
AcDbArc
 50
262.0034751338
 51
262.2059715698
  0
ARC
  5
313
100
AcDbEntity
  8
0
100
AcDbCircle
 62
7
  6
BYLAYER
 10
15.8225134871
 20
12.4476426803
 40
2.3381733021
100
AcDbArc
 50
14.7488415302
 51
14.9110056038
  0
ARC
  5
314
100
AcDbEntity
  8
0
100
AcDbCircle
 62
7
  6
BYLAYER
 10
16.1413513617
 20
12.493421243
 40
2.0065807628
100
AcDbArc
 50
15.9854694845
 51
16.2798572545
  0
ARC
  5
315
100
AcDbEntity
  8
0
100
AcDbCircle
 62
7
  6
BYLAYER
 10
18.9040427131
 20
12.3721578657
 40
1.7712697892
100
AcDbArc
 50
176.6342724452
 51
184.0918007439
  0
ARC
  5
316
100
AcDbEntity
  8
0
100
AcDbCircle
 62
7
  6
BYLAYER
 10
18.4895963838
 20
12.4492964512
 40
1.3736166338
100
AcDbArc
 50
188.5366296139
 51
191.6615060647
  0
ARC
  5
317
100
AcDbEntity
  8
0
100
AcDbCircle
 62
7
  6
BYLAYER
 10
17.2097380978
 20
12.7135760024
 40
0.928946872
100
AcDbArc
 50
20.7605975079
 51
21.0779912141
  0
ARC
  5
318
100
AcDbEntity
  8
0
100
AcDbCircle
 62
7
  6
BYLAYER
 10
17.4478667047
 20
13.8898238246
 40
0.6207723218
100
AcDbArc
 50
312.5083179411
 51
312.8705481224
  0
ARC
  5
319
100
AcDbEntity
  8
0
100
AcDbCircle
 62
7
  6
BYLAYER
 10
17.4687194109
 20
13.8683889568
 40
0.5908762593
100
AcDbArc
 50
312.8026992019
 51
319.2703535395
  0
ARC
  5
31A
100
AcDbEntity
  8
0
100
AcDbCircle
 62
7
  6
BYLAYER
 10
17.4298297839
 20
13.7954830142
 40
0.5380625512
100
AcDbArc
 50
269.7218759752
 51
270.0000847531
  0
ARC
  5
31B
100
AcDbEntity
  8
0
100
AcDbCircle
 62
7
  6
BYLAYER
 10
17.8269747243
 20
13.1453677632
 40
0.1564269955
100
AcDbArc
 50
88.4829194282
 51
91.8275163424
  0
ARC
  5
31C
100
AcDbEntity
  8
0
100
AcDbCircle
 62
7
  6
BYLAYER
 10
17.65990263
 20
13.6590698551
 40
0.1199810925
100
AcDbArc
 50
35.5390812279
 51
44.1424158364
  0
ARC
  5
31D
100
AcDbEntity
  8
0
100
AcDbCircle
 62
7
  6
BYLAYER
 10
15.9467287572
 20
11.9726358405
 40
0.0327914049
100
AcDbArc
 50
37.3453323776
 51
43.081226357
  0
ARC
  5
31E
100
AcDbEntity
  8
0
100
AcDbCircle
 62
7
  6
BYLAYER
 10
15.6459547895
 20
11.6597423233
 40
0.027797497
100
AcDbArc
 50
162.8318916292
 51
206.105791296
  0
ARC
  5
31F
100
AcDbEntity
  8
0
100
AcDbCircle
 62
7
  6
BYLAYER
 10
15.9353478031
 20
11.4870716151
 40
0.0277780352
100
AcDbArc
 50
270.0002034834
 51
342.8242883588
  0
ARC
  5
320
100
AcDbEntity
  8
0
100
AcDbCircle
 62
7
  6
BYLAYER
 10
15.7306673729
 20
11.4870710549
 40
0.027777372
100
AcDbArc
 50
206.1382496208
 51
269.9962773674
  0
ARC
  5
321
100
AcDbEntity
  8
02___PRT_ALL_AXES
100
AcDbCircle
 62
7
  6
BYLAYER
 10
17.4796148817
 20
13.942033822
 40
0.022109139
100
AcDbArc
 50
206.2981977786
 51
220.9397755725
  0
ARC
  5
322
100
AcDbEntity
  8
02___PRT_ALL_AXES
100
AcDbCircle
 62
7
  6
BYLAYER
 10
17.5869770991
 20
13.3389507395
 40
0.022109139
100
AcDbArc
 50
206.2981977785
 51
220.9397755725
  0
ARC
  5
323
100
AcDbEntity
  8
02___PRT_ALL_AXES
100
AcDbCircle
 62
7
  6
BYLAYER
 10
17.514750384
 20
13.9592170961
 40
0.022109139
100
AcDbArc
 50
26.2981977785
 51
40.9397755726
  0
ARC
  5
324
100
AcDbEntity
  8
02___PRT_ALL_AXES
100
AcDbCircle
 62
7
  6
BYLAYER
 10
17.6221126014
 20
13.3561340135
 40
0.022109139
100
AcDbArc
 50
26.2981977785
 51
40.9397755727
  0
SPLINE
  5
325
100
AcDbEntity
  8
0
100
AcDbSpline
 62
7
  6
BYLAYER
 70
0
 71
3
 72
9
 73
5
 74
0
 42
0.0000001
 43
0.0000001
 44
0.0000000001
 40
0.0
 40
0.0
 40
0.0
 40
0.0
 40
0.4631299038
 40
1.0
 40
1.0
 40
1.0
 40
1.0
 10
6.4965555556
 20
3.5396857932
 30
0.0
 10
6.4965555556
 20
3.5497559823
 30
0.0
 10
6.4961154007
 20
3.5714993195
 30
0.0
 10
6.4952021141
 20
3.5932245095
 30
0.0
 10
6.4946410501
 20
3.6048845973
 30
0.0
  0
SPLINE
  5
326
100
AcDbEntity
  8
0
100
AcDbSpline
 62
7
  6
BYLAYER
 70
0
 71
3
 72
13
 73
9
 74
0
 42
0.0000001
 43
0.0000001
 44
0.0000000001
 40
0.0
 40
0.0
 40
0.0
 40
0.0
 40
0.4221697451
 40
0.6825190018
 40
0.783074259
 40
0.8684218991
 40
0.9401174487
 40
1.0
 40
1.0
 40
1.0
 40
1.0
 10
6.4613460512
 20
5.0304928901
 30
0.0
 10
6.4613460512
 20
5.0355353021
 30
0.0
 10
6.460370444
 20
5.0437163376
 30
0.0
 10
6.4575702866
 20
5.052684406
 30
0.0
 10
6.4552701357
 20
5.0575016185
 30
0.0
 10
6.4536374674
 20
5.060120208
 30
0.0
 10
6.4519477231
 20
5.0620981995
 30
0.0
 10
6.4506632528
 20
5.063049354
 30
0.0
 10
6.450018996
 20
5.0633599997
 30
0.0
  0
SPLINE
  5
327
100
AcDbEntity
  8
0
100
AcDbSpline
 62
7
  6
BYLAYER
 70
0
 71
3
 72
14
 73
10
 74
0
 42
0.0000001
 43
0.0000001
 44
0.0000000001
 40
0.0
 40
0.0
 40
0.0
 40
0.0
 40
0.0436783732
 40
0.1058091038
 40
0.1863309253
 40
0.2857374603
 40
0.4062061957
 40
0.553610666
 40
1.0
 40
1.0
 40
1.0
 40
1.0
 10
6.4872167136
 20
5.0633599997
 30
0.0
 10
6.486881607
 20
5.0630005927
 30
0.0
 10
6.4862675579
 20
5.06196014
 30
0.0
 10
6.4854585553
 20
5.0600294324
 30
0.0
 10
6.4846175429
 20
5.0574345424
 30
0.0
 10
6.4837539203
 20
5.0541669241
 30
0.0
 10
6.4828780525
 20
5.0501268687
 30
0.0
 10
6.4815163044
 20
5.0422072329
 30
0.0
 10
6.4809815422
 20
5.0355149145
 30
0.0
 10
6.4809815422
 20
5.0304928901
 30
0.0
  0
SPLINE
  5
328
100
AcDbEntity
  8
0
100
AcDbSpline
 62
7
  6
BYLAYER
 70
0
 71
3
 72
15
 73
11
 74
0
 42
0.0000001
 43
0.0000001
 44
0.0000000001
 40
0.0
 40
0.0
 40
0.0
 40
0.0
 40
0.097160485
 40
0.1969758379
 40
0.3036622957
 40
0.4198253711
 40
0.5469753197
 40
0.6858955168
 40
0.8369239523
 40
1.0
 40
1.0
 40
1.0
 40
1.0
 10
6.5713610933
 20
5.0559946355
 30
0.0
 10
6.566248086
 20
5.0526458027
 30
0.0
 10
6.5565384243
 20
5.0448005956
 30
0.0
 10
6.5440731721
 20
5.0302156947
 30
0.0
 10
6.5333025857
 20
5.0129403495
 30
0.0
 10
6.5238956228
 20
4.9929921646
 30
0.0
 10
6.5156242874
 20
4.9703882218
 30
0.0
 10
6.5083321886
 20
4.9451666457
 30
0.0
 10
6.5019057029
 20
4.9173914814
 30
0.0
 10
6.4982745903
 20
4.8979630392
 30
0.0
 10
6.4965555556
 20
4.8878494594
 30
0.0
  0
SPLINE
  5
329
100
AcDbEntity
  8
0
100
AcDbSpline
 62
7
  6
BYLAYER
 70
0
 71
3
 72
11
 73
7
 74
0
 42
0.0000001
 43
0.0000001
 44
0.0000000001
 40
0.0
 40
0.0
 40
0.0
 40
0.0
 40
0.2265629289
 40
0.4737761669
 40
0.7338488786
 40
1.0
 40
1.0
 40
1.0
 40
1.0
 10
6.9149425068
 20
4.7725018212
 30
0.0
 10
6.9186443201
 20
4.7358637382
 30
0.0
 10
6.9251775955
 20
4.659122897
 30
0.0
 10
6.9320210832
 20
4.5400296524
 30
0.0
 10
6.9361370579
 20
4.4143745873
 30
0.0
 10
6.9370423051
 20
4.3288413451
 30
0.0
 10
6.9370423051
 20
4.2855822222
 30
0.0
  0
SPLINE
  5
32A
100
AcDbEntity
  8
0
100
AcDbSpline
 62
7
  6
BYLAYER
 70
0
 71
3
 72
17
 73
13
 74
0
 42
0.0000001
 43
0.0000001
 44
0.0000000001
 40
0.0
 40
0.0
 40
0.0
 40
0.0
 40
0.1770166492
 40
0.3395889764
 40
0.4865239199
 40
0.6171454899
 40
0.7313940715
 40
0.8303781912
 40
0.8751120175
 40
0.9175342589
 40
0.9586881511
 40
1.0
 40
1.0
 40
1.0
 40
1.0
 10
6.9149425068
 20
4.7725018212
 30
0.0
 10
6.9129561328
 20
4.7921616288
 30
0.0
 10
6.9086525018
 20
4.8298307908
 30
0.0
 10
6.9005786987
 20
4.8835517273
 30
0.0
 10
6.8909752553
 20
4.9317581796
 30
0.0
 10
6.8796317529
 20
4.9740462854
 30
0.0
 10
6.8662612534
 20
5.0100947177
 30
0.0
 10
6.8525672157
 20
5.0356143452
 30
0.0
 10
6.8399178655
 20
5.0521546998
 30
0.0
 10
6.829824657
 20
5.0623805152
 30
0.0
 10
6.8186451386
 20
5.0707980483
 30
0.0
 10
6.8104498719
 20
5.0750969054
 30
0.0
 10
6.8062063839
 20
5.0769021876
 30
0.0
  0
SPLINE
  5
32B
100
AcDbEntity
  8
0
100
AcDbSpline
 62
7
  6
BYLAYER
 70
0
 71
3
 72
9
 73
5
 74
0
 42
0.0000001
 43
0.0000001
 44
0.0000000001
 40
0.0
 40
0.0
 40
0.0
 40
0.0
 40
0.7517715406
 40
1.0
 40
1.0
 40
1.0
 40
1.0
 10
6.9149425068
 20
12.055582164
 30
0.0
 10
6.9201829513
 20
12.0163223901
 30
0.0
 10
6.9276011487
 20
11.9641597707
 30
0.0
 10
6.9351649338
 20
11.9120191576
 30
0.0
 10
6.9370423051
 20
11.8990765428
 30
0.0
  0
SPLINE
  5
32C
100
AcDbEntity
  8
0
100
AcDbSpline
 62
7
  6
BYLAYER
 70
0
 71
3
 72
46
 73
42
 74
0
 42
0.0000001
 43
0.0000001
 44
0.0000000001
 40
0.0
 40
0.0
 40
0.0
 40
0.0
 40
0.0451336416
 40
0.0958853085
 40
0.1516160836
 40
0.2116266487
 40
0.2751567192
 40
0.3079927077
 40
0.3414037995
 40
0.375284096
 40
0.409526225
 40
0.4440214428
 40
0.461332514
 40
0.4786666261
 40
0.4960099923
 40
0.5133483147
 40
0.5306650171
 40
0.5393272438
 40
0.5479812852
 40
0.5566327886
 40
0.5652820181
 40
0.5696136803
 40
0.5739459462
 40
0.5826058283
 40
0.591266872
 40
0.5999257394
 40
0.6085834805
 40
0.6172353459
 40
0.6345203165
 40
0.6517806177
 40
0.6690046421
 40
0.6861806244
 40
0.7203361312
 40
0.754153348
 40
0.7875279411
 40
0.8203547388
 40
0.8525283781
 40
0.8839445042
 40
0.9144993277
 40
0.9440917736
 40
1.0
 40
1.0
 40
1.0
 40
1.0
 10
6.9149425068
 20
12.055582164
 30
0.0
 10
6.9123778932
 20
12.0747954479
 30
0.0
 10
6.9066758453
 20
12.1155802467
 30
0.0
 10
6.8967524752
 20
12.1799372287
 30
0.0
 10
6.8846428402
 20
12.2504131935
 30
0.0
 10
6.869988096
 20
12.3260046565
 30
0.0
 10
6.8554077125
 20
12.3915757486
 30
0.0
 10
6.8418106496
 20
12.4456312938
 30
0.0
 10
6.8303812678
 20
12.4870911304
 30
0.0
 10
6.8176241651
 20
12.5287970815
 30
0.0
 10
6.8032261128
 20
12.5704615175
 30
0.0
 10
6.7894743807
 20
12.6047898209
 30
0.0
 10
6.7769645503
 20
12.6317285803
 30
0.0
 10
6.7666371526
 20
12.6515350453
 30
0.0
 10
6.7551201747
 20
12.670700212
 30
0.0
 10
6.7420316558
 20
12.6888307276
 30
0.0
 10
6.7292695052
 20
12.7024992606
 30
0.0
 10
6.7175255511
 20
12.7116847459
 30
0.0
 10
6.7078164939
 20
12.71726834
 30
0.0
 10
6.6972268503
 20
12.7210002315
 30
0.0
 10
6.6878844749
 20
12.7219720719
 30
0.0
 10
6.6804572001
 20
12.7213624565
 30
0.0
 10
6.673158513
 20
12.7198350394
 30
0.0
 10
6.6644348331
 20
12.7164090704
 30
0.0
 10
6.6549355333
 20
12.7104721288
 30
0.0
 10
6.6463387666
 20
12.7033206196
 30
0.0
 10
6.6385478803
 20
12.6953188669
 30
0.0
 10
6.6290483565
 20
12.6838802567
 30
0.0
 10
6.6185687885
 20
12.6685256738
 30
0.0
 10
6.6075870018
 20
12.6491765828
 30
0.0
 10
6.5978075237
 20
12.6292496145
 30
0.0
 10
6.5860523018
 20
12.6022474978
 30
0.0
 10
6.5732591
 20
12.5679627923
 30
0.0
 10
6.5600383648
 20
12.5264821234
 30
0.0
 10
6.5484846126
 20
12.4851018953
 30
0.0
 10
6.5382814261
 20
12.4440984411
 30
0.0
 10
6.5292140281
 20
12.4036919044
 30
0.0
 10
6.5211274686
 20
12.3640740687
 30
0.0
 10
6.5139045561
 20
12.3254174032
 30
0.0
 10
6.5054609327
 20
12.2762938564
 30
0.0
 10
6.4999223006
 20
12.2399893763
 30
0.0
 10
6.4965555556
 20
12.2162154961
 30
0.0
  0
SPLINE
  5
32D
100
AcDbEntity
  8
0
100
AcDbSpline
 62
7
  6
BYLAYER
 70
0
 71
3
 72
51
 73
47
 74
0
 42
0.0000001
 43
0.0000001
 44
0.0000000001
 40
0.0
 40
0.0
 40
0.0
 40
0.0
 40
0.067819908
 40
0.1356177534
 40
0.2034041248
 40
0.2711964539
 40
0.3390214353
 40
0.3729573969
 40
0.4069155902
 40
0.4408990643
 40
0.4749025448
 40
0.4919027889
 40
0.5088878112
 40
0.5258288464
 40
0.5426608736
 40
0.5509838414
 40
0.5591826746
 40
0.5671639705
 40
0.5710266437
 40
0.5747193243
 40
0.5781504433
 40
0.5812226998
 40
0.5837706143
 40
0.5855951635
 40
0.5861846951
 40
0.5865720861
 40
0.586832565
 40
0.5871051853
 40
0.5879888363
 40
0.5893531143
 40
0.5911205405
 40
0.5932050364
 40
0.5979975623
 40
0.603374213
 40
0.609157948
 40
0.6152393413
 40
0.6215416516
 40
0.6346417914
 40
0.6482235487
 40
0.6621555151
 40
0.6907765537
 40
0.7500141477
 40
0.8109746601
 40
0.8731249899
 40
0.9361894898
 40
1.0
 40
1.0
 40
1.0
 40
1.0
 10
6.9583333333
 20
12.746926783
 30
0.0
 10
6.9583333334
 20
12.7502070894
 30
0.0
 10
6.9583254446
 20
12.7567666384
 30
0.0
 10
6.958287471
 20
12.7666048073
 30
0.0
 10
6.9582201465
 20
12.7764414901
 30
0.0
 10
6.9581189382
 20
12.7862791989
 30
0.0
 10
6.9580008133
 20
12.7944793171
 30
0.0
 10
6.9578802418
 20
12.8010426671
 30
0.0
 10
6.9577743462
 20
12.805969146
 30
0.0
 10
6.9576496309
 20
12.8108984539
 30
0.0
 10
6.9575257368
 20
12.8150072648
 30
0.0
 10
6.9574098399
 20
12.8182937016
 30
0.0
 10
6.9573125938
 20
12.8207549897
 30
0.0
 10
6.9572020899
 20
12.8232075765
 30
0.0
 10
6.9570951995
 20
12.825240901
 30
0.0
 10
6.9569960357
 20
12.826851118
 30
0.0
 10
6.9569136779
 20
12.8280334307
 30
0.0
 10
6.9568352225
 20
12.8289997184
 30
0.0
 10
6.9567652321
 20
12.829747929
 30
0.0
 10
6.9567092001
 20
12.8302764048
 30
0.0
 10
6.9566479108
 20
12.8307657022
 30
0.0
 10
6.9565818734
 20
12.831198816
 30
0.0
 10
6.9565116024
 20
12.8315514833
 30
0.0
 10
6.9564512892
 20
12.8317853399
 30
0.0
 10
6.9563947189
 20
12.8319084046
 30
0.0
 10
6.9563592723
 20
12.831958247
 30
0.0
 10
6.9563129274
 20
12.8319751658
 30
0.0
 10
6.9562506746
 20
12.8319347033
 30
0.0
 10
6.9562010646
 20
12.8318197166
 30
0.0
 10
6.9561433823
 20
12.8316355606
 30
0.0
 10
6.9560928985
 20
12.8313874605
 30
0.0
 10
6.956025734
 20
12.8309750622
 30
0.0
 10
6.9559535386
 20
12.830386417
 30
0.0
 10
6.9558787518
 20
12.8296184937
 30
0.0
 10
6.9558119832
 20
12.8287871646
 30
0.0
 10
6.9557516503
 20
12.8279105135
 30
0.0
 10
6.9556771298
 20
12.8266801549
 30
0.0
 10
6.9555961658
 20
12.8250868015
 30
0.0
 10
6.9555128143
 20
12.8231241497
 30
0.0
 10
6.9554142713
 20
12.8204108048
 30
0.0
 10
6.955270418
 20
12.815489457
 30
0.0
 10
6.9551258745
 20
12.808292723
 30
0.0
 10
6.9550101234
 20
12.7994736352
 30
0.0
 10
6.9549366961
 20
12.7904689943
 30
0.0
 10
6.9548967808
 20
12.7813263072
 30
0.0
 10
6.9548888889
 20
12.7751896252
 30
0.0
 10
6.9548888889
 20
12.772103245
 30
0.0
  0
SPLINE
  5
32E
100
AcDbEntity
  8
0
100
AcDbSpline
 62
7
  6
BYLAYER
 70
0
 71
3
 72
16
 73
12
 74
0
 42
0.0000001
 43
0.0000001
 44
0.0000000001
 40
0.0
 40
0.0
 40
0.0
 40
0.0
 40
0.0392570896
 40
0.067712243
 40
0.1033369722
 40
0.1966185198
 40
0.3181923434
 40
0.4646093661
 40
0.631161214
 40
0.8120970277
 40
1.0
 40
1.0
 40
1.0
 40
1.0
 10
4.875
 20
11.9572098176
 30
0.0
 10
4.875
 20
11.9575906627
 30
0.0
 10
4.8754264159
 20
11.9582035198
 30
0.0
 10
4.8762229502
 20
11.9587869402
 30
0.0
 10
4.8775735334
 20
11.9595223083
 30
0.0
 10
4.8798687323
 20
11.9603378942
 30
0.0
 10
4.8832733639
 20
11.9611857106
 30
0.0
 10
4.8874300944
 20
11.961904975
 30
0.0
 10
4.8921918459
 20
11.9624568339
 30
0.0
 10
4.8973761608
 20
11.9628019116
 30
0.0
 10
4.9009548732
 20
11.96288095
 30
0.0
 10
4.9027777778
 20
11.96288095
 30
0.0
  0
SPLINE
  5
32F
100
AcDbEntity
  8
0
100
AcDbSpline
 62
7
  6
BYLAYER
 70
0
 71
3
 72
16
 73
12
 74
0
 42
0.0000001
 43
0.0000001
 44
0.0000000001
 40
0.0
 40
0.0
 40
0.0
 40
0.0
 40
0.1879029723
 40
0.368838786
 40
0.5353906339
 40
0.6818076566
 40
0.8033814802
 40
0.8966630278
 40
0.932287757
 40
0.9607429104
 40
1.0
 40
1.0
 40
1.0
 40
1.0
 10
5.125
 20
11.96288095
 30
0.0
 10
5.1268229045
 20
11.96288095
 30
0.0
 10
5.130401617
 20
11.9628019116
 30
0.0
 10
5.1355859319
 20
11.9624568339
 30
0.0
 10
5.1403476834
 20
11.961904975
 30
0.0
 10
5.1445044139
 20
11.9611857106
 30
0.0
 10
5.1479090455
 20
11.9603378942
 30
0.0
 10
5.1502042444
 20
11.9595223083
 30
0.0
 10
5.1515548276
 20
11.9587869402
 30
0.0
 10
5.1523513618
 20
11.9582035198
 30
0.0
 10
5.1527777778
 20
11.9575906627
 30
0.0
 10
5.1527777778
 20
11.9572098176
 30
0.0
  0
SPLINE
  5
330
100
AcDbEntity
  8
0
100
AcDbSpline
 62
7
  6
BYLAYER
 70
0
 71
3
 72
16
 73
12
 74
0
 42
0.0000001
 43
0.0000001
 44
0.0000000001
 40
0.0
 40
0.0
 40
0.0
 40
0.0
 40
0.1267984367
 40
0.253473551
 40
0.3799517523
 40
0.5061092358
 40
0.6317407766
 40
0.7564930298
 40
0.8797068159
 40
0.9403616454
 40
1.0
 40
1.0
 40
1.0
 40
1.0
 10
17.1915967022
 20
4.564886
 30
0.0
 10
17.1897747944
 20
4.5750106412
 30
0.0
 10
17.1852752932
 20
4.5950961664
 30
0.0
 10
17.1770084121
 20
4.6248009635
 30
0.0
 10
17.1674615251
 20
4.6540669282
 30
0.0
 10
17.1567334253
 20
4.6828290406
 30
0.0
 10
17.1448257783
 20
4.7109737208
 30
0.0
 10
17.131677871
 20
4.738296907
 30
0.0
 10
17.1195129398
 20
4.7602090932
 30
0.0
 10
17.108858673
 20
4.7768526029
 30
0.0
 10
17.1031530508
 20
4.7847812605
 30
0.0
 10
17.1001740598
 20
4.7885939722
 30
0.0
  0
SPLINE
  5
331
100
AcDbEntity
  8
0
100
AcDbSpline
 62
7
  6
BYLAYER
 70
0
 71
3
 72
49
 73
45
 74
0
 42
0.0000001
 43
0.0000001
 44
0.0000000001
 40
0.0
 40
0.0
 40
0.0
 40
0.0
 40
0.0625997139
 40
0.1251966727
 40
0.1877866876
 40
0.2503677307
 40
0.3129369393
 40
0.3442174758
 40
0.3754942381
 40
0.4067670099
 40
0.4380355778
 40
0.4692997795
 40
0.4849303553
 40
0.5005597918
 40
0.5630627453
 40
0.6255468279
 40
0.6880123154
 40
0.7192400571
 40
0.7504635987
 40
0.7816830652
 40
0.8128985067
 40
0.8441097801
 40
0.8597141674
 40
0.8753173141
 40
0.890919
 40
0.9065188569
 40
0.9221162176
 40
0.9377097778
 40
0.9455048441
 40
0.9532978553
 40
0.9610877657
 40
0.9688723316
 40
0.9727622046
 40
0.9766484039
 40
0.9805290278
 40
0.9824622214
 40
0.9844127686
 40
0.9863527792
 40
0.98828141
 40
0.9902270004
 40
0.9921789342
 40
0.9941447878
 40
0.9960936253
 40
1.0
 40
1.0
 40
1.0
 40
1.0
 10
17.1724125603
 20
3.9062659678
 30
0.0
 10
17.1758908969
 20
3.9127878491
 30
0.0
 10
17.1826421205
 20
3.9259420244
 30
0.0
 10
17.1921394997
 20
3.9459818496
 30
0.0
 10
17.2009943637
 20
3.966311694
 30
0.0
 10
17.2091911552
 20
3.9869120302
 30
0.0
 10
17.2154594486
 20
4.0042903115
 30
0.0
 10
17.2201261636
 20
4.0183088329
 30
0.0
 10
17.2234494844
 20
4.0288782069
 30
0.0
 10
17.2265932823
 20
4.0395008733
 30
0.0
 10
17.229554427
 20
4.0501743651
 30
0.0
 10
17.2318671543
 20
4.0591095599
 30
0.0
 10
17.2336225135
 20
4.0662804847
 30
0.0
 10
17.2361593006
 20
4.0770570633
 30
0.0
 10
17.2396022114
 20
4.0933037539
 30
0.0
 10
17.2433836378
 20
4.1151168588
 30
0.0
 10
17.245823796
 20
4.1334009118
 30
0.0
 10
17.2473186333
 20
4.1480754612
 30
0.0
 10
17.2482009045
 20
4.1591013355
 30
0.0
 10
17.2488317102
 20
4.1701430772
 30
0.0
 10
17.2491940033
 20
4.181195544
 30
0.0
 10
17.249252333
 20
4.1904102298
 30
0.0
 10
17.2491339612
 20
4.1977796423
 30
0.0
 10
17.24895555
 20
4.2033040379
 30
0.0
 10
17.2486782341
 20
4.2088238661
 30
0.0
 10
17.2482888632
 20
4.2143363741
 30
0.0
 10
17.2477674487
 20
4.2198371084
 30
0.0
 10
17.2471965928
 20
4.2244059394
 30
0.0
 10
17.2466275304
 20
4.2280437582
 30
0.0
 10
17.2461307632
 20
4.2307594821
 30
0.0
 10
17.245542804
 20
4.2334557901
 30
0.0
 10
17.2449465756
 20
4.2356770978
 30
0.0
 10
17.2443652655
 20
4.2374208069
 30
0.0
 10
17.2438557321
 20
4.2387002476
 30
0.0
 10
17.2433397524
 20
4.2397261316
 30
0.0
 10
17.2428290886
 20
4.2404901758
 30
0.0
 10
17.2423756837
 20
4.2410081215
 30
0.0
 10
17.2418211157
 20
4.2414371924
 30
0.0
 10
17.2411225487
 20
4.2415773114
 30
0.0
 10
17.240433334
 20
4.2414073234
 30
0.0
 10
17.2398721634
 20
4.2409839989
 30
0.0
 10
17.2394002394
 20
4.2404759876
 30
0.0
 10
17.2388462184
 20
4.239735271
 30
0.0
 10
17.2384975035
 20
4.2391360344
 30
0.0
 10
17.2382806404
 20
4.2387289499
 30
0.0
  0
SPLINE
  5
332
100
AcDbEntity
  8
0
100
AcDbSpline
 62
7
  6
BYLAYER
 70
0
 71
3
 72
10
 73
6
 74
0
 42
0.0000001
 43
0.0000001
 44
0.0000000001
 40
0.0
 40
0.0
 40
0.0
 40
0.0
 40
0.2500180534
 40
0.5000547058
 40
1.0
 40
1.0
 40
1.0
 40
1.0
 10
17.1944710704
 20
4.538184911
 30
0.0
 10
17.194518662
 20
4.5404253145
 30
0.0
 10
17.1943367698
 20
4.5449112511
 30
0.0
 10
17.1934427382
 20
4.5538306278
 30
0.0
 10
17.1923903029
 20
4.5604758307
 30
0.0
 10
17.1915967022
 20
4.564886
 30
0.0
  0
SPLINE
  5
333
100
AcDbEntity
  8
0
100
AcDbSpline
 62
7
  6
BYLAYER
 70
0
 71
3
 72
10
 73
6
 74
0
 42
0.0000001
 43
0.0000001
 44
0.0000000001
 40
0.0
 40
0.0
 40
0.0
 40
0.0
 40
0.2499636387
 40
0.499992052
 40
1.0
 40
1.0
 40
1.0
 40
1.0
 10
16.5678683665
 20
4.8312912823
 30
0.0
 10
16.5643027934
 20
4.8335137197
 30
0.0
 10
16.5569385467
 20
4.8375874117
 30
0.0
 10
16.5417523415
 20
4.8448017588
 30
0.0
 10
16.5299961905
 20
4.8494074268
 30
0.0
 10
16.522070245
 20
4.8522024819
 30
0.0
  0
SPLINE
  5
334
100
AcDbEntity
  8
0
100
AcDbSpline
 62
7
  6
BYLAYER
 70
0
 71
3
 72
11
 73
7
 74
0
 42
0.0000001
 43
0.0000001
 44
0.0000000001
 40
0.0
 40
0.0
 40
0.0
 40
0.0
 40
0.2496672338
 40
0.4995944061
 40
0.7497396046
 40
1.0
 40
1.0
 40
1.0
 40
1.0
 10
15.7818469468
 20
4.7407705497
 30
0.0
 10
15.7596382277
 20
4.7076518272
 30
0.0
 10
15.7206335283
 20
4.6375735364
 30
0.0
 10
15.6791655191
 20
4.5247793735
 30
0.0
 10
15.654487852
 20
4.4071097128
 30
0.0
 10
15.6490435428
 20
4.3270787287
 30
0.0
 10
15.6490435428
 20
4.2871082222
 30
0.0
  0
SPLINE
  5
335
100
AcDbEntity
  8
0
100
AcDbSpline
 62
7
  6
BYLAYER
 70
0
 71
3
 72
8
 73
4
 74
0
 42
0.0000001
 43
0.0000001
 44
0.0000000001
 40
0.0
 40
0.0
 40
0.0
 40
0.0
 40
1.0
 40
1.0
 40
1.0
 40
1.0
 10
16.2043348002
 20
4.7959094225
 30
0.0
 10
16.2246280481
 20
4.8001746523
 30
0.0
 10
16.2449584928
 20
4.8043073887
 30
0.0
 10
16.2654065571
 20
4.8077548171
 30
0.0
  0
SPLINE
  5
336
100
AcDbEntity
  8
0
100
AcDbSpline
 62
7
  6
BYLAYER
 70
0
 71
3
 72
10
 73
6
 74
0
 42
0.0000001
 43
0.0000001
 44
0.0000000001
 40
0.0
 40
0.0
 40
0.0
 40
0.0
 40
0.249840323
 40
0.4998775909
 40
1.0
 40
1.0
 40
1.0
 40
1.0
 10
17.2382806404
 20
4.2387289499
 30
0.0
 10
17.2377085481
 20
4.237655047
 30
0.0
 10
17.2367696388
 20
4.2353997966
 30
0.0
 10
17.2352114561
 20
4.230786338
 30
0.0
 10
17.2342378091
 20
4.2272617724
 30
0.0
 10
17.233619813
 20
4.2249057621
 30
0.0
  0
SPLINE
  5
337
100
AcDbEntity
  8
0
100
AcDbSpline
 62
7
  6
BYLAYER
 70
0
 71
3
 72
16
 73
12
 74
0
 42
0.0000001
 43
0.0000001
 44
0.0000000001
 40
0.0
 40
0.0
 40
0.0
 40
0.0
 40
0.1695806314
 40
0.3266422632
 40
0.4703548124
 40
0.600324648
 40
0.7167330619
 40
0.8205509971
 40
0.9138076513
 40
0.9575445224
 40
1.0
 40
1.0
 40
1.0
 40
1.0
 10
16.7447947001
 20
12.8650018512
 30
0.0
 10
16.7497933349
 20
12.8811774391
 30
0.0
 10
16.7603390274
 20
12.9120642216
 30
0.0
 10
16.778588188
 20
12.9553781215
 30
0.0
 10
16.7985071498
 20
12.9935562627
 30
0.0
 10
16.8198915135
 20
13.0261971757
 30
0.0
 10
16.8425523281
 20
13.052966445
 30
0.0
 10
16.8663003758
 20
13.0735738812
 30
0.0
 10
16.8873513894
 20
13.0856221566
 30
0.0
 10
16.9042923128
 20
13.0915732014
 30
0.0
 10
16.9127370102
 20
13.093374701
 30
0.0
 10
16.9169325231
 20
13.0939775568
 30
0.0
  0
SPLINE
  5
338
100
AcDbEntity
  8
0
100
AcDbSpline
 62
7
  6
BYLAYER
 70
0
 71
3
 72
28
 73
24
 74
0
 42
0.0000001
 43
0.0000001
 44
0.0000000001
 40
0.0
 40
0.0
 40
0.0
 40
0.0
 40
0.0664603565
 40
0.1373923798
 40
0.2117720521
 40
0.2884660258
 40
0.3662775047
 40
0.4439784993
 40
0.520344123
 40
0.5941863228
 40
0.6643892219
 40
0.7299479885
 40
0.7900141624
 40
0.8177885892
 40
0.8439755927
 40
0.8685440253
 40
0.8914899983
 40
0.9128424729
 40
0.9326699979
 40
0.9510907194
 40
0.9682806372
 40
0.9844811069
 40
1.0
 40
1.0
 40
1.0
 40
1.0
 10
16.7447947001
 20
12.8650018512
 30
0.0
 10
16.7378317678
 20
12.842469794
 30
0.0
 10
16.7253316635
 20
12.7952920839
 30
0.0
 10
16.7110150269
 20
12.721474242
 30
0.0
 10
16.7007051574
 20
12.6433277052
 30
0.0
 10
16.6945992128
 20
12.562297863
 30
0.0
 10
16.6928124631
 20
12.4798803092
 30
0.0
 10
16.6953787645
 20
12.3975999144
 30
0.0
 10
16.7022493523
 20
12.3169780516
 30
0.0
 10
16.7132941899
 20
12.2395043244
 30
0.0
 10
16.7283044273
 20
12.1666024661
 30
0.0
 10
16.7469978632
 20
12.0996135493
 30
0.0
 10
16.7658167774
 20
12.04844918
 30
0.0
 10
16.78261361
 20
12.0116190454
 30
0.0
 10
16.7955675708
 20
11.9869284899
 30
0.0
 10
16.8091483955
 20
11.9645557961
 30
0.0
 10
16.8232971487
 20
11.944602056
 30
0.0
 10
16.8379531356
 20
11.9271570507
 30
0.0
 10
16.8530580898
 20
11.912301406
 30
0.0
 10
16.8685524991
 20
11.9001063905
 30
0.0
 10
16.8843802288
 20
11.8906384564
 30
0.0
 10
16.90047143
 20
11.8839640939
 30
0.0
 10
16.9114910545
 20
11.8813783825
 30
0.0
 10
16.9169420517
 20
11.8805959755
 30
0.0
  0
SPLINE
  5
339
100
AcDbEntity
  8
0
100
AcDbSpline
 62
7
  6
BYLAYER
 70
0
 71
3
 72
20
 73
16
 74
0
 42
0.0000001
 43
0.0000001
 44
0.0000000001
 40
0.0
 40
0.0
 40
0.0
 40
0.0
 40
0.1711475251
 40
0.3324033959
 40
0.4812084817
 40
0.5502899629
 40
0.6155351348
 40
0.6768018182
 40
0.7340072571
 40
0.7871511803
 40
0.836326519
 40
0.8817461046
 40
0.923775844
 40
0.9629577292
 40
1.0
 40
1.0
 40
1.0
 40
1.0
 10
16.7654008179
 20
12.2958728984
 30
0.0
 10
16.7689478889
 20
12.2679733679
 30
0.0
 10
16.7774692969
 20
12.2139735898
 30
0.0
 10
16.7950639697
 20
12.1368178311
 30
0.0
 10
16.813598719
 20
12.0772450566
 30
0.0
 10
16.830574575
 20
12.0339077268
 30
0.0
 10
16.8438575762
 20
12.0046212914
 30
0.0
 10
16.8579344615
 20
11.9778920981
 30
0.0
 10
16.8727368161
 20
11.953859468
 30
0.0
 10
16.8881890783
 20
11.932646268
 30
0.0
 10
16.9042194041
 20
11.9143626153
 30
0.0
 10
16.9207543292
 20
11.8991040916
 30
0.0
 10
16.9377282807
 20
11.8869571622
 30
0.0
 10
16.9550614467
 20
11.8780123372
 30
0.0
 10
16.9670568137
 20
11.8741538873
 30
0.0
 10
16.9729987549
 20
11.8728327811
 30
0.0
  0
SPLINE
  5
33A
100
AcDbEntity
  8
02__ASM_ALL_AXES
100
AcDbSpline
 62
7
  6
BYLAYER
 70
0
 71
3
 72
46
 73
42
 74
0
 42
0.0000001
 43
0.0000001
 44
0.0000000001
 40
0.0
 40
0.0
 40
0.0
 40
0.0
 40
0.0625
 40
0.125
 40
0.140625
 40
0.15625
 40
0.171875
 40
0.1875
 40
0.21875
 40
0.25
 40
0.28125
 40
0.3125
 40
0.328125
 40
0.3359375
 40
0.34375
 40
0.359375
 40
0.375
 40
0.4375
 40
0.46875
 40
0.484375
 40
0.5
 40
0.515625
 40
0.53125
 40
0.5625
 40
0.625
 40
0.640625
 40
0.65625
 40
0.6640625
 40
0.671875
 40
0.6875
 40
0.71875
 40
0.75
 40
0.78125
 40
0.8125
 40
0.828125
 40
0.8359375
 40
0.84375
 40
0.859375
 40
0.875
 40
0.9375
 40
1.0
 40
1.0
 40
1.0
 40
1.0
 10
18.2637823485
 20
12.8702472832
 30
0.0
 10
18.2622396746
 20
12.8731396269
 30
0.0
 10
18.2591536099
 20
12.8789233013
 30
0.0
 10
18.2556850132
 20
12.8854344929
 30
0.0
 10
18.2533679106
 20
12.8897686403
 30
0.0
 10
18.2522176936
 20
12.8919474888
 30
0.0
 10
18.2510350806
 20
12.8940805676
 30
0.0
 10
18.2493040854
 20
12.8967067396
 30
0.0
 10
18.2471932523
 20
12.9000646069
 30
0.0
 10
18.2446375474
 20
12.9040602164
 30
0.0
 10
18.2420880058
 20
12.9080709075
 30
0.0
 10
18.2399617643
 20
12.9113910707
 30
0.0
 10
18.2384741081
 20
12.9137549534
 30
0.0
 10
18.2376232839
 20
12.9150441929
 30
0.0
 10
18.2367698051
 20
12.9161018031
 30
0.0
 10
18.2357038255
 20
12.9175029183
 30
0.0
 10
18.2331450967
 20
12.9208010988
 30
0.0
 10
18.2301562092
 20
12.9246631396
 30
0.0
 10
18.2271787639
 20
12.9285391239
 30
0.0
 10
18.2254602913
 20
12.9307203569
 30
0.0
 10
18.2242193934
 20
12.9324531431
 30
0.0
 10
18.2227952072
 20
12.933815291
 30
0.0
 10
18.2209602442
 20
12.9357606382
 30
0.0
 10
18.217719073
 20
12.9391061552
 30
0.0
 10
18.2144899439
 20
12.9424656965
 30
0.0
 10
18.211717733
 20
12.9453572803
 30
0.0
 10
18.2105642207
 20
12.9465354671
 30
0.0
 10
18.209638068
 20
12.9475407543
 30
0.0
 10
18.2087240264
 20
12.9483164022
 30
0.0
 10
18.2071300624
 20
12.9495670272
 30
0.0
 10
18.2048501407
 20
12.9514097276
 30
0.0
 10
18.2021150002
 20
12.9535957403
 30
0.0
 10
18.1993813259
 20
12.9557929149
 30
0.0
 10
18.1970977386
 20
12.9576077107
 30
0.0
 10
18.1955101893
 20
12.9589071687
 30
0.0
 10
18.1945858842
 20
12.9596046838
 30
0.0
 10
18.193597048
 20
12.9601327184
 30
0.0
 10
18.1923830602
 20
12.960850692
 30
0.0
 10
18.1894513309
 20
12.9625261383
 30
0.0
 10
18.185061425
 20
12.9650594993
 30
0.0
 10
18.1811561624
 20
12.967303171
 30
0.0
 10
18.1792039217
 20
12.9684260324
 30
0.0
  0
SPLINE
  5
33B
100
AcDbEntity
  8
02__ASM_ALL_AXES
100
AcDbSpline
 62
7
  6
BYLAYER
 70
0
 71
3
 72
38
 73
34
 74
0
 42
0.0000001
 43
0.0000001
 44
0.0000000001
 40
0.0
 40
0.0
 40
0.0
 40
0.0
 40
0.0625
 40
0.125
 40
0.15625
 40
0.171875
 40
0.1875
 40
0.25
 40
0.28125
 40
0.3125
 40
0.328125
 40
0.34375
 40
0.375
 40
0.4375
 40
0.46875
 40
0.484375
 40
0.5
 40
0.515625
 40
0.53125
 40
0.5625
 40
0.625
 40
0.65625
 40
0.671875
 40
0.6875
 40
0.71875
 40
0.75
 40
0.78125
 40
0.8125
 40
0.828125
 40
0.84375
 40
0.875
 40
0.9375
 40
1.0
 40
1.0
 40
1.0
 40
1.0
 10
18.1792039206
 20
12.9684260329
 30
0.0
 10
18.1778899708
 20
12.9689372679
 30
0.0
 10
18.175262245
 20
12.9699633353
 30
0.0
 10
18.1719767184
 20
12.9712279322
 30
0.0
 10
18.1696784473
 20
12.9721462018
 30
0.0
 10
18.1683626718
 20
12.9726196634
 30
0.0
 10
18.1663757685
 20
12.9730511129
 30
0.0
 10
18.1640607815
 20
12.9736459293
 30
0.0
 10
18.1614178072
 20
12.9742908898
 30
0.0
 10
18.1597556305
 20
12.9746765401
 30
0.0
 10
18.1584499706
 20
12.9750356479
 30
0.0
 10
18.157056239
 20
12.9752063654
 30
0.0
 10
18.1545757636
 20
12.9754182662
 30
0.0
 10
18.1517613143
 20
12.9756918004
 30
0.0
 10
18.1492866195
 20
12.9759356729
 30
0.0
 10
18.1478829783
 20
12.9760515819
 30
0.0
 10
18.1468022804
 20
12.9762075594
 30
0.0
 10
18.1458282157
 20
12.9760990773
 30
0.0
 10
18.1444921826
 20
12.9760464702
 30
0.0
 10
18.1421723497
 20
12.9759136412
 30
0.0
 10
18.1395079815
 20
12.9757652716
 30
0.0
 10
18.1371929022
 20
12.9756671979
 30
0.0
 10
18.13584872
 20
12.9755550102
 30
0.0
 10
18.134425475
 20
12.9752293936
 30
0.0
 10
18.1326735124
 20
12.9748960847
 30
0.0
 10
18.1305597018
 20
12.9744624403
 30
0.0
 10
18.1284483632
 20
12.9740455517
 30
0.0
 10
18.1266902207
 20
12.9736703532
 30
0.0
 10
18.1252793354
 20
12.9734285158
 30
0.0
 10
18.1238848904
 20
12.9729756258
 30
0.0
 10
18.1214522763
 20
12.9720850514
 30
0.0
 10
18.1179730792
 20
12.9708643901
 30
0.0
 10
18.115190951
 20
12.9698721391
 30
0.0
 10
18.1137997332
 20
12.9693779788
 30
0.0
  0
LINE
  5
33C
100
AcDbEntity
  8
02__ASM_ALL_AXES
100
AcDbLine
 62
7
  6
BYLAYER
 10
18.1137997331
 20
12.9693779787
 11
18.1059659647
 21
12.9655528314
  0
SPLINE
  5
33D
100
AcDbEntity
  8
02__ASM_ALL_AXES
100
AcDbSpline
 62
7
  6
BYLAYER
 70
0
 71
3
 72
39
 73
35
 74
0
 42
0.0000001
 43
0.0000001
 44
0.0000000001
 40
0.0
 40
0.0
 40
0.0
 40
0.0
 40
0.0625
 40
0.125
 40
0.15625
 40
0.171875
 40
0.1875
 40
0.21875
 40
0.25
 40
0.28125
 40
0.3125
 40
0.328125
 40
0.34375
 40
0.375
 40
0.4375
 40
0.46875
 40
0.484375
 40
0.5
 40
0.515625
 40
0.53125
 40
0.5625
 40
0.625
 40
0.65625
 40
0.671875
 40
0.6875
 40
0.71875
 40
0.75
 40
0.78125
 40
0.8125
 40
0.828125
 40
0.84375
 40
0.875
 40
0.9375
 40
1.0
 40
1.0
 40
1.0
 40
1.0
 10
18.1059659647
 20
12.9655528314
 30
0.0
 10
18.1044339121
 20
12.964581676
 30
0.0
 10
18.1013692765
 20
12.9626441901
 30
0.0
 10
18.0975411341
 20
12.9601982084
 30
0.0
 10
18.0948565611
 20
12.9585303495
 30
0.0
 10
18.0933300781
 20
12.9575085331
 30
0.0
 10
18.0918320812
 20
12.9562276463
 30
0.0
 10
18.0899497312
 20
12.9547160074
 30
0.0
 10
18.0876954806
 20
12.9528611921
 30
0.0
 10
18.085438719
 20
12.95102662
 30
0.0
 10
18.0835626462
 20
12.9494643731
 30
0.0
 10
18.0820520949
 20
12.9482847022
 30
0.0
 10
18.0805766665
 20
12.9468512744
 30
0.0
 10
18.0780107976
 20
12.9442259766
 30
0.0
 10
18.0750726579
 20
12.9412686586
 30
0.0
 10
18.0725006647
 20
12.9386848707
 30
0.0
 10
18.071035735
 20
12.9371802831
 30
0.0
 10
18.0699230158
 20
12.9361351502
 30
0.0
 10
18.0688639939
 20
12.9347708544
 30
0.0
 10
18.0674332818
 20
12.9330628852
 30
0.0
 10
18.0649377641
 20
12.9300245454
 30
0.0
 10
18.0620853694
 20
12.9265575807
 30
0.0
 10
18.0595822785
 20
12.9235591432
 30
0.0
 10
18.0581645491
 20
12.92178277
 30
0.0
 10
18.0567946991
 20
12.9197667914
 30
0.0
 10
18.0550658498
 20
12.9173295819
 30
0.0
 10
18.0529987882
 20
12.914367072
 30
0.0
 10
18.0509279556
 20
12.9114235743
 30
0.0
 10
18.0492085339
 20
12.9089388343
 30
0.0
 10
18.0478198287
 20
12.9070179169
 30
0.0
 10
18.0464787773
 20
12.9048549614
 30
0.0
 10
18.0441540687
 20
12.9009573805
 30
0.0
 10
18.0408214082
 20
12.8954485704
 30
0.0
 10
18.0381588298
 20
12.8910234918
 30
0.0
 10
18.0368270969
 20
12.8888132063
 30
0.0
  0
LINE
  5
33E
100
AcDbEntity
  8
02__ASM_ALL_AXES
100
AcDbLine
 62
7
  6
BYLAYER
 10
18.0368270961
 20
12.8888132048
 11
18.0336257804
 21
12.8829763243
  0
LINE
  5
33F
100
AcDbEntity
  8
02__ASM_ALL_AXES
100
AcDbLine
 62
7
  6
BYLAYER
 10
18.0336257804
 20
12.8829763243
 11
18.0324643245
 21
12.8807948149
  0
SPLINE
  5
340
100
AcDbEntity
  8
02__ASM_ALL_AXES
100
AcDbSpline
 62
7
  6
BYLAYER
 70
0
 71
3
 72
61
 73
57
 74
0
 42
0.0000001
 43
0.0000001
 44
0.0000000001
 40
0.0
 40
0.0
 40
0.0
 40
0.0
 40
0.0625
 40
0.09375
 40
0.125
 40
0.140625
 40
0.15625
 40
0.1640625
 40
0.16796875
 40
0.171875
 40
0.1796875
 40
0.1875
 40
0.203125
 40
0.21875
 40
0.25
 40
0.28125
 40
0.3125
 40
0.3203125
 40
0.328125
 40
0.3359375
 40
0.34375
 40
0.359375
 40
0.375
 40
0.40625
 40
0.4375
 40
0.453125
 40
0.46875
 40
0.484375
 40
0.4921875
 40
0.49609375
 40
0.5
 40
0.50390625
 40
0.5078125
 40
0.515625
 40
0.53125
 40
0.546875
 40
0.5625
 40
0.59375
 40
0.625
 40
0.640625
 40
0.65625
 40
0.6640625
 40
0.671875
 40
0.6875
 40
0.71875
 40
0.75
 40
0.78125
 40
0.8125
 40
0.828125
 40
0.8359375
 40
0.84375
 40
0.859375
 40
0.875
 40
0.90625
 40
0.9375
 40
1.0
 40
1.0
 40
1.0
 40
1.0
 10
18.0324643246
 20
12.880794815
 30
0.0
 10
18.0302351946
 20
12.8760087195
 30
0.0
 10
18.0268915931
 20
12.8688291721
 30
0.0
 10
18.0224330843
 20
12.8592580593
 30
0.0
 10
18.0196472944
 20
12.8532727449
 30
0.0
 10
18.0174168883
 20
12.8484921744
 30
0.0
 10
18.0160269309
 20
12.8454867998
 30
0.0
 10
18.0150458514
 20
12.8434181452
 30
0.0
 10
18.0144979222
 20
12.8421811278
 30
0.0
 10
18.0139977893
 20
12.8407371844
 30
0.0
 10
18.0133562576
 20
12.8390031064
 30
0.0
 10
18.0123389535
 20
12.8361889855
 30
0.0
 10
18.0110641858
 20
12.8326848997
 30
0.0
 10
18.0090263448
 20
12.8270707371
 30
0.0
 10
18.0064781891
 20
12.8200559622
 30
0.0
 10
18.003421823
 20
12.8116356142
 30
0.0
 10
18.0011263113
 20
12.8053246935
 30
0.0
 10
17.9996009213
 20
12.8011109973
 30
0.0
 10
17.9988294032
 20
12.799015534
 30
0.0
 10
17.9980921874
 20
12.7968758146
 30
0.0
 10
17.9972724489
 20
12.7938122798
 30
0.0
 10
17.9961918907
 20
12.7900549613
 30
0.0
 10
17.9944942306
 20
12.7840029626
 30
0.0
 10
17.9923614484
 20
12.7764517321
 30
0.0
 10
17.990232453
 20
12.7688957917
 30
0.0
 10
17.988528734
 20
12.7628513288
 30
0.0
 10
17.9872502409
 20
12.7583199393
 30
0.0
 10
17.986187394
 20
12.7545371353
 30
0.0
 10
17.9854383245
 20
12.7519022727
 30
0.0
 10
17.9850182185
 20
12.7503761733
 30
0.0
 10
17.9846807883
 20
12.7492892468
 30
0.0
 10
17.9844287942
 20
12.74798196
 30
0.0
 10
17.9840630011
 20
12.7463157749
 30
0.0
 10
17.9834367472
 20
12.7433641397
 30
0.0
 10
17.9825348466
 20
12.7391662327
 30
0.0
 10
17.9814556415
 20
12.7341207681
 30
0.0
 10
17.9800157691
 20
12.7273960968
 30
0.0
 10
17.9782152322
 20
12.7189905873
 30
0.0
 10
17.9764186459
 20
12.7105804908
 30
0.0
 10
17.9749724526
 20
12.7038631588
 30
0.0
 10
17.9740889172
 20
12.6996402568
 30
0.0
 10
17.973335515
 20
12.6963182155
 30
0.0
 10
17.97275214
 20
12.6927907088
 30
0.0
 10
17.97181027
 20
12.6865220808
 30
0.0
 10
17.9704231275
 20
12.6776170396
 30
0.0
 10
17.9687776488
 20
12.6669085761
 30
0.0
 10
17.9671223832
 20
12.6562095419
 30
0.0
 10
17.9657597079
 20
12.6472809276
 30
0.0
 10
17.9647750204
 20
12.6410535525
 30
0.0
 10
17.9642601533
 20
12.6374600412
 30
0.0
 10
17.9639252918
 20
12.633734754
 30
0.0
 10
17.9634450811
 20
12.629123265
 30
0.0
 10
17.9627111886
 20
12.6217196668
 30
0.0
 10
17.961782024
 20
12.6124738067
 30
0.0
 10
17.9603019846
 20
12.5976755813
 30
0.0
 10
17.9591904647
 20
12.5865780034
 30
0.0
 10
17.9584497826
 20
12.5791793756
 30
0.0
  0
LINE
  5
341
100
AcDbEntity
  8
02__ASM_ALL_AXES
100
AcDbLine
 62
7
  6
BYLAYER
 10
17.9584497823
 20
12.5791793719
 11
17.9580745352
 21
12.5739926646
  0
SPLINE
  5
342
100
AcDbEntity
  8
02__ASM_ALL_AXES
100
AcDbSpline
 62
7
  6
BYLAYER
 70
0
 71
3
 72
43
 73
39
 74
0
 42
0.0000001
 43
0.0000001
 44
0.0000000001
 40
0.0
 40
0.0
 40
0.0
 40
0.0
 40
0.0625
 40
0.125
 40
0.15625
 40
0.171875
 40
0.1875
 40
0.21875
 40
0.25
 40
0.28125
 40
0.3125
 40
0.328125
 40
0.34375
 40
0.359375
 40
0.375
 40
0.40625
 40
0.4375
 40
0.46875
 40
0.484375
 40
0.4921875
 40
0.5
 40
0.5078125
 40
0.515625
 40
0.53125
 40
0.5625
 40
0.625
 40
0.65625
 40
0.671875
 40
0.6875
 40
0.71875
 40
0.75
 40
0.78125
 40
0.8125
 40
0.828125
 40
0.84375
 40
0.875
 40
0.9375
 40
1.0
 40
1.0
 40
1.0
 40
1.0
 10
17.9579994414
 20
12.5729156897
 30
0.0
 10
17.9577111666
 20
12.5672060234
 30
0.0
 10
17.9571306893
 20
12.5557875169
 30
0.0
 10
17.9564247317
 20
12.5415102535
 30
0.0
 10
17.9558944744
 20
12.5315237584
 30
0.0
 10
17.9556474418
 20
12.5258054186
 30
0.0
 10
17.9556113192
 20
12.5200426207
 30
0.0
 10
17.9554933095
 20
12.5128548288
 30
0.0
 10
17.9553850438
 20
12.5042207795
 30
0.0
 10
17.9552599647
 20
12.4955963975
 30
0.0
 10
17.9551839886
 20
12.4883844372
 30
0.0
 10
17.9550637989
 20
12.4826699762
 30
0.0
 10
17.955134929
 20
12.4782337939
 30
0.0
 10
17.9552512872
 20
12.4737554496
 30
0.0
 10
17.9553905933
 20
12.4677990006
 30
0.0
 10
17.9555704418
 20
12.4603487684
 30
0.0
 10
17.9557825813
 20
12.4514088954
 30
0.0
 10
17.9559640055
 20
12.4439638771
 30
0.0
 10
17.9560828651
 20
12.4387419474
 30
0.0
 10
17.9561633423
 20
12.4357743823
 30
0.0
 10
17.9561883529
 20
12.4335025008
 30
0.0
 10
17.9563484738
 20
12.4314072523
 30
0.0
 10
17.9565148254
 20
12.4285519713
 30
0.0
 10
17.9568280554
 20
12.4235839867
 30
0.0
 10
17.9574366392
 20
12.4136264161
 30
0.0
 10
17.958153648
 20
12.4022629975
 30
0.0
 10
17.9587425102
 20
12.3922978697
 30
0.0
 10
17.9591342957
 20
12.3866331283
 30
0.0
 10
17.9597332497
 20
12.3810785803
 30
0.0
 10
17.9604103072
 20
12.3740977842
 30
0.0
 10
17.9612558711
 20
12.3657360722
 30
0.0
 10
17.9620836714
 20
12.3573735648
 30
0.0
 10
17.9628051378
 20
12.3503947571
 30
0.0
 10
17.963315274
 20
12.3448362324
 30
0.0
 10
17.9640682515
 20
12.3391876629
 30
0.0
 10
17.9654987544
 20
12.3292607862
 30
0.0
 10
17.9674829656
 20
12.3151015758
 30
0.0
 10
17.9690884265
 20
12.3037674899
 30
0.0
 10
17.9698888955
 20
12.2981012867
 30
0.0
  0
LINE
  5
343
100
AcDbEntity
  8
02__ASM_ALL_AXES
100
AcDbLine
 62
7
  6
BYLAYER
 10
17.9706360455
 20
12.2935929434
 11
17.9727193265
 21
12.2816379198
  0
SPLINE
  5
344
100
AcDbEntity
  8
02__ASM_ALL_AXES
100
AcDbSpline
 62
7
  6
BYLAYER
 70
0
 71
3
 72
38
 73
34
 74
0
 42
0.0000001
 43
0.0000001
 44
0.0000000001
 40
0.0
 40
0.0
 40
0.0
 40
0.0
 40
0.0625
 40
0.125
 40
0.15625
 40
0.171875
 40
0.1875
 40
0.25
 40
0.28125
 40
0.3125
 40
0.328125
 40
0.34375
 40
0.375
 40
0.4375
 40
0.46875
 40
0.484375
 40
0.5
 40
0.515625
 40
0.53125
 40
0.5625
 40
0.625
 40
0.65625
 40
0.671875
 40
0.6875
 40
0.71875
 40
0.75
 40
0.78125
 40
0.8125
 40
0.828125
 40
0.84375
 40
0.875
 40
0.9375
 40
1.0
 40
1.0
 40
1.0
 40
1.0
 10
17.9731279693
 20
12.2793896776
 30
0.0
 10
17.9739269757
 20
12.2754086384
 30
0.0
 10
17.9755219947
 20
12.2674468711
 30
0.0
 10
17.9775307374
 20
12.2574931056
 30
0.0
 10
17.978909352
 20
12.2505283297
 30
0.0
 10
17.979739793
 20
12.2465440219
 30
0.0
 10
17.981217539
 20
12.2405428026
 30
0.0
 10
17.9828647776
 20
12.233553012
 30
0.0
 10
17.9847785602
 20
12.2255495568
 30
0.0
 10
17.9859843834
 20
12.2205719114
 30
0.0
 10
17.9869179342
 20
12.2165347421
 30
0.0
 10
17.9879681488
 20
12.2126981736
 30
0.0
 10
17.9898599317
 20
12.2060764352
 30
0.0
 10
17.9920020057
 20
12.1984755871
 30
0.0
 10
17.9938748176
 20
12.1918195995
 30
0.0
 10
17.9949575538
 20
12.1880417438
 30
0.0
 10
17.9957323615
 20
12.1851331536
 30
0.0
 10
17.9966498681
 20
12.1825125741
 30
0.0
 10
17.9978235369
 20
12.1789182485
 30
0.0
 10
17.9998995803
 20
12.1726724479
 30
0.0
 10
18.0022695204
 20
12.1655314884
 30
0.0
 10
18.0043281324
 20
12.1592464965
 30
0.0
 10
18.0055316837
 20
12.155719356
 30
0.0
 10
18.0068388008
 20
12.1524363792
 30
0.0
 10
18.0084367973
 20
12.1482485799
 30
0.0
 10
18.0103713637
 20
12.1432605512
 30
0.0
 10
18.0122954874
 20
12.1382577258
 30
0.0
 10
18.0139195907
 20
12.1341069183
 30
0.0
 10
18.0151744942
 20
12.1307499579
 30
0.0
 10
18.016590381
 20
12.127523684
 30
0.0
 10
18.0191429649
 20
12.1219383637
 30
0.0
 10
18.0227501544
 20
12.1139274089
 30
0.0
 10
18.0256479011
 20
12.1075283748
 30
0.0
 10
18.027095275
 20
12.1043276416
 30
0.0
  0
SPLINE
  5
345
100
AcDbEntity
  8
02__ASM_ALL_AXES
100
AcDbSpline
 62
7
  6
BYLAYER
 70
0
 71
3
 72
28
 73
24
 74
0
 42
0.0000001
 43
0.0000001
 44
0.0000000001
 40
0.0
 40
0.0
 40
0.0
 40
0.0
 40
0.125
 40
0.15625
 40
0.1875
 40
0.25
 40
0.3125
 40
0.34375
 40
0.375
 40
0.4375
 40
0.46875
 40
0.5
 40
0.53125
 40
0.5625
 40
0.625
 40
0.65625
 40
0.6875
 40
0.75
 40
0.8125
 40
0.84375
 40
0.875
 40
0.9375
 40
1.0
 40
1.0
 40
1.0
 40
1.0
 10
18.0270952767
 20
12.1043276382
 30
0.0
 10
18.0288169968
 20
12.1009797632
 30
0.0
 10
18.0309993199
 20
12.0967902597
 30
0.0
 10
18.0335275887
 20
12.0917768344
 30
0.0
 10
18.0354062083
 20
12.0884047292
 30
0.0
 10
18.0378251393
 20
12.0841873499
 30
0.0
 10
18.0402112938
 20
12.0799432654
 30
0.0
 10
18.0421423558
 20
12.0766138886
 30
0.0
 10
18.0441349889
 20
12.0735316287
 30
0.0
 10
18.046107768
 20
12.0703687246
 30
0.0
 10
18.0480939307
 20
12.0672624156
 30
0.0
 10
18.0495632558
 20
12.0648435427
 30
0.0
 10
18.0511070768
 20
12.0627529368
 30
0.0
 10
18.0531385984
 20
12.0598463837
 30
0.0
 10
18.0551825668
 20
12.0569977687
 30
0.0
 10
18.0572093744
 20
12.0540646482
 30
0.0
 10
18.0592882293
 20
12.0513922988
 30
0.0
 10
18.0619105875
 20
12.0481443205
 30
0.0
 10
18.0645036253
 20
12.0448480813
 30
0.0
 10
18.0666293929
 20
12.0422529492
 30
0.0
 10
18.0689366581
 20
12.0397843465
 30
0.0
 10
18.0717580512
 20
12.0366548905
 30
0.0
 10
18.0740342708
 20
12.0341646446
 30
0.0
 10
18.0751699924
 20
12.0329178568
 30
0.0
  0
SPLINE
  5
346
100
AcDbEntity
  8
02__ASM_ALL_AXES
100
AcDbSpline
 62
7
  6
BYLAYER
 70
0
 71
3
 72
71
 73
67
 74
0
 42
0.0000001
 43
0.0000001
 44
0.0000000001
 40
0.0
 40
0.0
 40
0.0
 40
0.0
 40
0.0625
 40
0.09375
 40
0.125
 40
0.140625
 40
0.15625
 40
0.1640625
 40
0.16796875
 40
0.171875
 40
0.1796875
 40
0.1875
 40
0.203125
 40
0.21875
 40
0.25
 40
0.28125
 40
0.296875
 40
0.3125
 40
0.3203125
 40
0.328125
 40
0.33203125
 40
0.3359375
 40
0.34375
 40
0.359375
 40
0.375
 40
0.390625
 40
0.40625
 40
0.4375
 40
0.453125
 40
0.46875
 40
0.484375
 40
0.4921875
 40
0.49609375
 40
0.5
 40
0.50390625
 40
0.5078125
 40
0.515625
 40
0.53125
 40
0.546875
 40
0.5625
 40
0.59375
 40
0.609375
 40
0.625
 40
0.640625
 40
0.65625
 40
0.6640625
 40
0.66796875
 40
0.671875
 40
0.6796875
 40
0.6875
 40
0.703125
 40
0.71875
 40
0.75
 40
0.78125
 40
0.796875
 40
0.8125
 40
0.8203125
 40
0.828125
 40
0.83203125
 40
0.8359375
 40
0.84375
 40
0.859375
 40
0.875
 40
0.90625
 40
0.9375
 40
1.0
 40
1.0
 40
1.0
 40
1.0
 10
18.0751699906
 20
12.0329178587
 30
0.0
 10
18.0780917821
 20
12.0304858303
 30
0.0
 10
18.0824745172
 20
12.0268382704
 30
0.0
 10
18.0883179728
 20
12.021972927
 30
0.0
 10
18.0919705306
 20
12.0189361086
 30
0.0
 10
18.0948916694
 20
12.0164974854
 30
0.0
 10
18.0967194507
 20
12.0149942565
 30
0.0
 10
18.0979947501
 20
12.0139000896
 30
0.0
 10
18.0987299817
 20
12.0133404181
 30
0.0
 10
18.0994896589
 20
12.0130277464
 30
0.0
 10
18.1004308853
 20
12.0125523343
 30
0.0
 10
18.1019415252
 20
12.0118389389
 30
0.0
 10
18.1038282225
 20
12.0109310043
 30
0.0
 10
18.1068478392
 20
12.0094873993
 30
0.0
 10
18.1106220128
 20
12.0076794766
 30
0.0
 10
18.1143964491
 20
12.0058738567
 30
0.0
 10
18.1174156456
 20
12.0044265673
 30
0.0
 10
18.1193033934
 20
12.0035278438
 30
0.0
 10
18.1208118797
 20
12.0027955657
 30
0.0
 10
18.1217585884
 20
12.0023682239
 30
0.0
 10
18.1225070121
 20
12.0019568784
 30
0.0
 10
18.1232880847
 20
12.0017991555
 30
0.0
 10
18.124670131
 20
12.0016409773
 30
0.0
 10
18.126636551
 20
12.001353392
 30
0.0
 10
18.1289996549
 20
12.0010347068
 30
0.0
 10
18.1313618503
 20
12.0007089395
 30
0.0
 10
18.1345117561
 20
12.0002771311
 30
0.0
 10
18.1376616074
 20
11.9998441994
 30
0.0
 10
18.1408113881
 20
11.9994127266
 30
0.0
 10
18.14317399
 20
11.9990858685
 30
0.0
 10
18.1451419665
 20
11.9988237237
 30
0.0
 10
18.1465212361
 20
11.9986201483
 30
0.0
 10
18.1473067574
 20
11.998535161
 30
0.0
 10
18.1479033149
 20
11.9983831313
 30
0.0
 10
18.1484715226
 20
11.998568588
 30
0.0
 10
18.1492390217
 20
11.9986981444
 30
0.0
 10
18.1505775376
 20
11.9989797161
 30
0.0
 10
18.1524921121
 20
11.9993532839
 30
0.0
 10
18.1547885704
 20
11.99981385
 30
0.0
 10
18.1578508746
 20
12.0004235981
 30
0.0
 10
18.1609130825
 20
12.0010348176
 30
0.0
 10
18.1639753095
 20
12.0016448778
 30
0.0
 10
18.1662720186
 20
12.0021044293
 30
0.0
 10
18.1685685626
 20
12.0025565351
 30
0.0
 10
18.1704828674
 20
12.0029564372
 30
0.0
 10
18.1718218649
 20
12.0031910167
 30
0.0
 10
18.1725885924
 20
12.0033958642
 30
0.0
 10
18.1733612939
 20
12.0038673917
 30
0.0
 10
18.1743251254
 20
12.0043654901
 30
0.0
 10
18.1758683987
 20
12.0052134774
 30
0.0
 10
18.1777970997
 20
12.0062559816
 30
0.0
 10
18.1808832351
 20
12.0079338002
 30
0.0
 10
18.1847408634
 20
12.0100274032
 30
0.0
 10
18.1885983885
 20
12.0121234228
 30
0.0
 10
18.191684689
 20
12.0137973748
 30
0.0
 10
18.1936129775
 20
12.0148495458
 30
0.0
 10
18.1951570965
 20
12.015677716
 30
0.0
 10
18.196118775
 20
12.0162262634
 30
0.0
 10
18.1968958959
 20
12.0165942346
 30
0.0
 10
18.1976446211
 20
12.0172209195
 30
0.0
 10
18.1989416993
 20
12.0184378017
 30
0.0
 10
18.2008015505
 20
12.0201134989
 30
0.0
 10
18.2037734662
 20
12.0228296581
 30
0.0
 10
18.2074896784
 20
12.026212853
 30
0.0
 10
18.2134348782
 20
12.0316327039
 30
0.0
 10
18.2178939445
 20
12.0356960758
 30
0.0
 10
18.2208666184
 20
12.0384053274
 30
0.0
  0
SPLINE
  5
347
100
AcDbEntity
  8
02__ASM_ALL_AXES
100
AcDbSpline
 62
7
  6
BYLAYER
 70
0
 71
3
 72
66
 73
62
 74
0
 42
0.0000001
 43
0.0000001
 44
0.0000000001
 40
0.0
 40
0.0
 40
0.0
 40
0.0
 40
0.0625
 40
0.09375
 40
0.125
 40
0.140625
 40
0.15625
 40
0.1640625
 40
0.16796875
 40
0.171875
 40
0.1796875
 40
0.1875
 40
0.203125
 40
0.21875
 40
0.25
 40
0.28125
 40
0.296875
 40
0.3125
 40
0.3203125
 40
0.328125
 40
0.33203125
 40
0.3359375
 40
0.34375
 40
0.359375
 40
0.375
 40
0.40625
 40
0.4375
 40
0.453125
 40
0.46875
 40
0.484375
 40
0.4921875
 40
0.49609375
 40
0.5
 40
0.50390625
 40
0.5078125
 40
0.515625
 40
0.53125
 40
0.546875
 40
0.5625
 40
0.59375
 40
0.625
 40
0.640625
 40
0.65625
 40
0.6640625
 40
0.671875
 40
0.6796875
 40
0.6875
 40
0.71875
 40
0.75
 40
0.78125
 40
0.8125
 40
0.8203125
 40
0.828125
 40
0.83203125
 40
0.8359375
 40
0.84375
 40
0.859375
 40
0.875
 40
0.90625
 40
0.9375
 40
1.0
 40
1.0
 40
1.0
 40
1.0
 10
18.2208666197
 20
12.0384053288
 30
0.0
 10
18.2236023225
 20
12.0419910211
 30
0.0
 10
18.2277057776
 20
12.0473699874
 30
0.0
 10
18.2331774475
 20
12.0545402308
 30
0.0
 10
18.2365964153
 20
12.059025199
 30
0.0
 10
18.2393334725
 20
12.0626050428
 30
0.0
 10
18.2410398387
 20
12.064860989
 30
0.0
 10
18.2422429018
 20
12.0664029879
 30
0.0
 10
18.2429169004
 20
12.0673422758
 30
0.0
 10
18.2435401707
 20
12.0685006071
 30
0.0
 10
18.2443366279
 20
12.0698735211
 30
0.0
 10
18.2456012524
 20
12.0721120978
 30
0.0
 10
18.2471853584
 20
12.0748959615
 30
0.0
 10
18.2497180595
 20
12.0793582006
 30
0.0
 10
18.2528846486
 20
12.0849329992
 30
0.0
 10
18.2560507225
 20
12.0905097274
 30
0.0
 10
18.258584248
 20
12.0949688792
 30
0.0
 10
18.2601662929
 20
12.0977604611
 30
0.0
 10
18.2614351427
 20
12.0999832155
 30
0.0
 10
18.2622208435
 20
12.1013964089
 30
0.0
 10
18.2628661933
 20
12.1024720589
 30
0.0
 10
18.263450251
 20
12.1037481501
 30
0.0
 10
18.2644438794
 20
12.106074423
 30
0.0
 10
18.2658782037
 20
12.10934909
 30
0.0
 10
18.2681648232
 20
12.1146156957
 30
0.0
 10
18.2710259218
 20
12.1211897335
 30
0.0
 10
18.2738860978
 20
12.1277667256
 30
0.0
 10
18.2761741934
 20
12.1330286044
 30
0.0
 10
18.2778909542
 20
12.1369723854
 30
0.0
 10
18.27931931
 20
12.1402675113
 30
0.0
 10
18.2803236418
 20
12.1425571016
 30
0.0
 10
18.2808905445
 20
12.1438919856
 30
0.0
 10
18.2813354443
 20
12.1448183649
 30
0.0
 10
18.2817049535
 20
12.1460306055
 30
0.0
 10
18.2822239294
 20
12.1475472147
 30
0.0
 10
18.2831198858
 20
12.1502477373
 30
0.0
 10
18.2844062217
 20
12.1540813473
 30
0.0
 10
18.2859471168
 20
12.1586920344
 30
0.0
 10
18.2880024365
 20
12.1648361864
 30
0.0
 10
18.290572409
 20
12.1725162189
 30
0.0
 10
18.2931380993
 20
12.1802011699
 30
0.0
 10
18.2952002705
 20
12.1863374523
 30
0.0
 10
18.2964672211
 20
12.1901993655
 30
0.0
 10
18.2975309523
 20
12.1932276475
 30
0.0
 10
18.2981913822
 20
12.1956665628
 30
0.0
 10
18.2988133196
 20
12.1981524702
 30
0.0
 10
18.30007699
 20
12.2031001231
 30
0.0
 10
18.3019642558
 20
12.2105315891
 30
0.0
 10
18.3044849649
 20
12.2204352719
 30
0.0
 10
18.3070058335
 20
12.2303374041
 30
0.0
 10
18.3088927402
 20
12.2377723592
 30
0.0
 10
18.3101568694
 20
12.2427155539
 30
0.0
 10
18.3106743112
 20
12.2447953006
 30
0.0
 10
18.3111099144
 20
12.2464122447
 30
0.0
 10
18.3114663415
 20
12.2482005359
 30
0.0
 10
18.312053302
 20
12.2514096574
 30
0.0
 10
18.3129110107
 20
12.2559525792
 30
0.0
 10
18.3142726179
 20
12.2632444675
 30
0.0
 10
18.3159783014
 20
12.2723513762
 30
0.0
 10
18.3187053321
 20
12.2869268943
 30
0.0
 10
18.3207510693
 20
12.2978575284
 30
0.0
 10
18.3221147909
 20
12.305144841
 30
0.0
  0
SPLINE
  5
348
100
AcDbEntity
  8
02__ASM_ALL_AXES
100
AcDbSpline
 62
7
  6
BYLAYER
 70
0
 71
3
 72
16
 73
12
 74
0
 42
0.0000001
 43
0.0000001
 44
0.0000000001
 40
0.0
 40
0.0
 40
0.0
 40
0.0
 40
0.125
 40
0.25
 40
0.5
 40
0.625
 40
0.6875
 40
0.75
 40
0.8125
 40
0.875
 40
1.0
 40
1.0
 40
1.0
 40
1.0
 10
18.3223787731
 20
12.3068425403
 30
0.0
 10
18.322908743
 20
12.3104328256
 30
0.0
 10
18.3239912451
 20
12.317592529
 30
0.0
 10
18.3259757514
 20
12.332078873
 30
0.0
 10
18.3278476087
 20
12.3466722241
 30
0.0
 10
18.3291988079
 20
12.3596587069
 30
0.0
 10
18.3299788882
 20
12.3670696613
 30
0.0
 10
18.3304855067
 20
12.3726858245
 30
0.0
 10
18.3310290095
 20
12.3782558535
 30
0.0
 10
18.3316615527
 20
12.3858513448
 30
0.0
 10
18.3321190757
 20
12.3915824708
 30
0.0
 10
18.3324278431
 20
12.3953955531
 30
0.0
  0
SPLINE
  5
349
100
AcDbEntity
  8
02__ASM_ALL_AXES
100
AcDbSpline
 62
7
  6
BYLAYER
 70
0
 71
3
 72
50
 73
46
 74
0
 42
0.0000001
 43
0.0000001
 44
0.0000000001
 40
0.0
 40
0.0
 40
0.0
 40
0.0
 40
0.0625
 40
0.125
 40
0.140625
 40
0.15625
 40
0.1640625
 40
0.171875
 40
0.1875
 40
0.21875
 40
0.25
 40
0.28125
 40
0.3125
 40
0.328125
 40
0.3359375
 40
0.34375
 40
0.359375
 40
0.375
 40
0.4375
 40
0.46875
 40
0.484375
 40
0.4921875
 40
0.5
 40
0.5078125
 40
0.515625
 40
0.53125
 40
0.5625
 40
0.625
 40
0.640625
 40
0.65625
 40
0.6640625
 40
0.671875
 40
0.6875
 40
0.71875
 40
0.75
 40
0.78125
 40
0.8125
 40
0.828125
 40
0.8359375
 40
0.84375
 40
0.859375
 40
0.875
 40
0.90625
 40
0.9375
 40
1.0
 40
1.0
 40
1.0
 40
1.0
 10
18.3324278428
 20
12.3953955496
 30
0.0
 10
18.3328041565
 20
12.4030088628
 30
0.0
 10
18.3335590535
 20
12.4182351191
 30
0.0
 10
18.3343980997
 20
12.435366323
 30
0.0
 10
18.3349723575
 20
12.4467846966
 30
0.0
 10
18.3351896457
 20
12.4515459379
 30
0.0
 10
18.3354147531
 20
12.4553465683
 30
0.0
 10
18.3354523418
 20
12.4591777808
 30
0.0
 10
18.3354309424
 20
12.4658966075
 30
0.0
 10
18.3354462558
 20
12.4754875513
 30
0.0
 10
18.3354436562
 20
12.4869996398
 30
0.0
 10
18.3354515447
 20
12.4985117125
 30
0.0
 10
18.3354406381
 20
12.5081026962
 30
0.0
 10
18.3354651236
 20
12.514821453
 30
0.0
 10
18.3354292963
 20
12.5186527772
 30
0.0
 10
18.3352059303
 20
12.5224540848
 30
0.0
 10
18.3349908669
 20
12.5272159976
 30
0.0
 10
18.3344215479
 20
12.5386359666
 30
0.0
 10
18.3337789442
 20
12.5519639196
 30
0.0
 10
18.3331180561
 20
12.5652854491
 30
0.0
 10
18.3328020775
 20
12.5719530556
 30
0.0
 10
18.3325993325
 20
12.5757523053
 30
0.0
 10
18.3325096983
 20
12.5786322212
 30
0.0
 10
18.3321814586
 20
12.5813956285
 30
0.0
 10
18.3318270381
 20
12.5851208167
 30
0.0
 10
18.3311679823
 20
12.5916209022
 30
0.0
 10
18.3298787384
 20
12.6046356121
 30
0.0
 10
18.3285715681
 20
12.6176390641
 30
0.0
 10
18.3274689304
 20
12.6287986192
 30
0.0
 10
18.3269883778
 20
12.6334308963
 30
0.0
 10
18.3266528449
 20
12.637177434
 30
0.0
 10
18.3261385714
 20
12.6407751379
 30
0.0
 10
18.3251555017
 20
12.6470019161
 30
0.0
 10
18.3237948348
 20
12.6559338259
 30
0.0
 10
18.3221421089
 20
12.6666350379
 30
0.0
 10
18.3204991363
 20
12.6773461492
 30
0.0
 10
18.319114086
 20
12.6862533108
 30
0.0
 10
18.3181736872
 20
12.6925233984
 30
0.0
 10
18.3175911403
 20
12.6960518072
 30
0.0
 10
18.3168385178
 20
12.6993750142
 30
0.0
 10
18.3159559734
 20
12.7035992839
 30
0.0
 10
18.3145113581
 20
12.7103188494
 30
0.0
 10
18.3127167369
 20
12.7187317568
 30
0.0
 10
18.3098390844
 20
12.7321848574
 30
0.0
 10
18.3076822533
 20
12.7422763819
 30
0.0
 10
18.3062440529
 20
12.7490036874
 30
0.0
  0
LINE
  5
34A
100
AcDbEntity
  8
02__ASM_ALL_AXES
100
AcDbLine
 62
7
  6
BYLAYER
 10
18.3062440538
 20
12.7490036836
 11
18.3041975502
 21
12.7571169715
  0
LINE
  5
34B
100
AcDbEntity
  8
02__ASM_ALL_AXES
100
AcDbLine
 62
7
  6
BYLAYER
 10
18.3041975502
 20
12.7571169718
 11
18.3018017968
 21
12.7661894871
  0
SPLINE
  5
34C
100
AcDbEntity
  8
02__ASM_ALL_AXES
100
AcDbSpline
 62
7
  6
BYLAYER
 70
0
 71
3
 72
28
 73
24
 74
0
 42
0.0000001
 43
0.0000001
 44
0.0000000001
 40
0.0
 40
0.0
 40
0.0
 40
0.0
 40
0.0625
 40
0.125
 40
0.15625
 40
0.1875
 40
0.25
 40
0.3125
 40
0.34375
 40
0.375
 40
0.4375
 40
0.46875
 40
0.5
 40
0.53125
 40
0.5625
 40
0.625
 40
0.65625
 40
0.6875
 40
0.75
 40
0.8125
 40
0.84375
 40
0.875
 40
1.0
 40
1.0
 40
1.0
 40
1.0
 10
18.3018017969
 20
12.7661894867
 30
0.0
 10
18.3011658195
 20
12.7684304207
 30
0.0
 10
18.2998987197
 20
12.7729076956
 30
0.0
 10
18.2982905701
 20
12.778527254
 30
0.0
 10
18.2970550275
 20
12.7829746748
 30
0.0
 10
18.2956349966
 20
12.7875966274
 30
0.0
 10
18.2937935813
 20
12.7934276465
 30
0.0
 10
18.2919861777
 20
12.7992602824
 30
0.0
 10
18.2905117282
 20
12.803879648
 30
0.0
 10
18.2889505307
 20
12.808308087
 30
0.0
 10
18.287417413
 20
12.812799011
 30
0.0
 10
18.2858651169
 20
12.817245675
 30
0.0
 10
18.2847303504
 20
12.820650968
 30
0.0
 10
18.2834873507
 20
12.823797211
 30
0.0
 10
18.2818691668
 20
12.8280862594
 30
0.0
 10
18.2802325555
 20
12.8323290609
 30
0.0
 10
18.2786218647
 20
12.8366400596
 30
0.0
 10
18.2769320616
 20
12.8407399323
 30
0.0
 10
18.274786356
 20
12.8457942662
 30
0.0
 10
18.2726752165
 20
12.8508716335
 30
0.0
 10
18.2709301076
 20
12.8549346529
 30
0.0
 10
18.2680269979
 20
12.8610652676
 30
0.0
 10
18.2656820748
 20
12.8661647159
 30
0.0
 10
18.2637823492
 20
12.8702472818
 30
0.0
  0
SPLINE
  5
34D
100
AcDbEntity
  8
02__ASM_ALL_AXES
100
AcDbSpline
 62
7
  6
BYLAYER
 70
0
 71
3
 72
49
 73
45
 74
0
 42
0.0000001
 43
0.0000001
 44
0.0000000001
 40
0.0
 40
0.0
 40
0.0
 40
0.0
 40
0.0625
 40
0.125
 40
0.140625
 40
0.15625
 40
0.1640625
 40
0.171875
 40
0.1875
 40
0.21875
 40
0.25
 40
0.28125
 40
0.3125
 40
0.328125
 40
0.3359375
 40
0.34375
 40
0.359375
 40
0.375
 40
0.4375
 40
0.46875
 40
0.484375
 40
0.4921875
 40
0.5
 40
0.5078125
 40
0.515625
 40
0.53125
 40
0.5625
 40
0.625
 40
0.640625
 40
0.65625
 40
0.6640625
 40
0.671875
 40
0.6875
 40
0.71875
 40
0.75
 40
0.78125
 40
0.8125
 40
0.828125
 40
0.8359375
 40
0.84375
 40
0.859375
 40
0.875
 40
0.9375
 40
1.0
 40
1.0
 40
1.0
 40
1.0
 10
17.1670883274
 20
13.6490839178
 30
0.0
 10
17.1662317331
 20
13.6458119399
 30
0.0
 10
17.1645167378
 20
13.639268708
 30
0.0
 10
17.1625954989
 20
13.6319043146
 30
0.0
 10
17.1613028155
 20
13.6269994696
 30
0.0
 10
17.1607817013
 20
13.6249487714
 30
0.0
 10
17.1603239864
 20
13.6233245683
 30
0.0
 10
17.1600155626
 20
13.6216405536
 30
0.0
 10
17.1595452337
 20
13.6186657535
 30
0.0
 10
17.1588367624
 20
13.6144304152
 30
0.0
 10
17.1580034887
 20
13.6093424877
 30
0.0
 10
17.157161164
 20
13.6042536446
 30
0.0
 10
17.1564753205
 20
13.6000205954
 30
0.0
 10
17.1559653929
 20
13.5970417894
 30
0.0
 10
17.155720327
 20
13.5953641841
 30
0.0
 10
17.1556496447
 20
13.593779132
 30
0.0
 10
17.1555016483
 20
13.5917661853
 30
0.0
 10
17.1551958839
 20
13.5869611173
 30
0.0
 10
17.1548191843
 20
13.5813470516
 30
0.0
 10
17.1544591594
 20
13.5757346912
 30
0.0
 10
17.1542661195
 20
13.5729308449
 30
0.0
 10
17.1541757616
 20
13.5713244024
 30
0.0
 10
17.1540518635
 20
13.5701316374
 30
0.0
 10
17.154142509
 20
13.5688927274
 30
0.0
 10
17.1541885308
 20
13.5672569353
 30
0.0
 10
17.154303974
 20
13.5643868831
 30
0.0
 10
17.1545089053
 20
13.5586513096
 30
0.0
 10
17.1547299473
 20
13.5529182147
 30
0.0
 10
17.1549034281
 20
13.5479955857
 30
0.0
 10
17.1549946797
 20
13.545957556
 30
0.0
 10
17.1550237563
 20
13.5442966294
 30
0.0
 10
17.1552133574
 20
13.5427472616
 30
0.0
 10
17.1556197884
 20
13.5400877059
 30
0.0
 10
17.1561610946
 20
13.5362612606
 30
0.0
 10
17.1568287667
 20
13.5316810239
 30
0.0
 10
17.1574869155
 20
13.5270981242
 30
0.0
 10
17.1580520297
 20
13.5232783367
 30
0.0
 10
17.1584167967
 20
13.5206071297
 30
0.0
 10
17.1586730601
 20
13.5190764041
 30
0.0
 10
17.1591093539
 20
13.5175293517
 30
0.0
 10
17.1595931846
 20
13.515601117
 30
0.0
 10
17.1608050374
 20
13.5109687593
 30
0.0
 10
17.1626013681
 20
13.504022168
 30
0.0
 10
17.1642068221
 20
13.4978466297
 30
0.0
 10
17.1650084597
 20
13.4947589594
 30
0.0
  0
SPLINE
  5
34E
100
AcDbEntity
  8
02__ASM_ALL_AXES
100
AcDbSpline
 62
7
  6
BYLAYER
 70
0
 71
3
 72
24
 73
20
 74
0
 42
0.0000001
 43
0.0000001
 44
0.0000000001
 40
0.0
 40
0.0
 40
0.0
 40
0.0
 40
0.125
 40
0.25
 40
0.28125
 40
0.3125
 40
0.34375
 40
0.375
 40
0.4375
 40
0.46875
 40
0.5
 40
0.53125
 40
0.5625
 40
0.625
 40
0.65625
 40
0.6875
 40
0.75
 40
0.875
 40
1.0
 40
1.0
 40
1.0
 40
1.0
 10
17.1650084602
 20
13.4947589577
 30
0.0
 10
17.1651724031
 20
13.4942579513
 30
0.0
 10
17.1654982993
 20
13.4932538351
 30
0.0
 10
17.1658738852
 20
13.49213367
 30
0.0
 10
17.1661288206
 20
13.4913802323
 30
0.0
 10
17.1662512548
 20
13.4910165373
 30
0.0
 10
17.1663929139
 20
13.4906020791
 30
0.0
 10
17.1666721723
 20
13.4898109884
 30
0.0
 10
17.1669293064
 20
13.4890767455
 30
0.0
 10
17.1671850287
 20
13.4883508192
 30
0.0
 10
17.1674031802
 20
13.4877245769
 30
0.0
 10
17.1675165984
 20
13.4874213663
 30
0.0
 10
17.1677028346
 20
13.4869080793
 30
0.0
 10
17.1678884664
 20
13.4864027662
 30
0.0
 10
17.1680496524
 20
13.4859552862
 30
0.0
 10
17.1683094274
 20
13.485265842
 30
0.0
 10
17.1688101706
 20
13.4839432525
 30
0.0
 10
17.1695021628
 20
13.482130683
 30
0.0
 10
17.1700664543
 20
13.4807180414
 30
0.0
 10
17.1703472628
 20
13.4800070439
 30
0.0
  0
LINE
  5
34F
100
AcDbEntity
  8
02__ASM_ALL_AXES
100
AcDbLine
 62
7
  6
BYLAYER
 10
17.1703472627
 20
13.4800070443
 11
17.1711657891
 21
13.4780051363
  0
SPLINE
  5
350
100
AcDbEntity
  8
02__ASM_ALL_AXES
100
AcDbSpline
 62
7
  6
BYLAYER
 70
0
 71
3
 72
65
 73
61
 74
0
 42
0.0000001
 43
0.0000001
 44
0.0000000001
 40
0.0
 40
0.0
 40
0.0
 40
0.0
 40
0.0625
 40
0.09375
 40
0.125
 40
0.140625
 40
0.15625
 40
0.1640625
 40
0.16796875
 40
0.171875
 40
0.1796875
 40
0.1875
 40
0.21875
 40
0.25
 40
0.28125
 40
0.3125
 40
0.3203125
 40
0.328125
 40
0.33203125
 40
0.3359375
 40
0.34375
 40
0.359375
 40
0.375
 40
0.40625
 40
0.4375
 40
0.453125
 40
0.46875
 40
0.484375
 40
0.4921875
 40
0.49609375
 40
0.5
 40
0.50390625
 40
0.5078125
 40
0.515625
 40
0.53125
 40
0.546875
 40
0.5625
 40
0.59375
 40
0.625
 40
0.640625
 40
0.65625
 40
0.6640625
 40
0.66796875
 40
0.671875
 40
0.6796875
 40
0.6875
 40
0.71875
 40
0.75
 40
0.78125
 40
0.8125
 40
0.8203125
 40
0.828125
 40
0.83203125
 40
0.8359375
 40
0.84375
 40
0.859375
 40
0.875
 40
0.90625
 40
0.9375
 40
1.0
 40
1.0
 40
1.0
 40
1.0
 10
17.1711657891
 20
13.4780051363
 30
0.0
 10
17.1732056377
 20
13.4740416686
 30
0.0
 10
17.1762657663
 20
13.4680965925
 30
0.0
 10
17.1803445151
 20
13.4601693225
 30
0.0
 10
17.1828966971
 20
13.4552158243
 30
0.0
 10
17.1849316847
 20
13.451250642
 30
0.0
 10
17.1862189648
 20
13.4487778394
 30
0.0
 10
17.1870891722
 20
13.4470359828
 30
0.0
 10
17.1876347618
 20
13.4460576821
 30
0.0
 10
17.1883623795
 20
13.4451435848
 30
0.0
 10
17.1892096825
 20
13.4439790174
 30
0.0
 10
17.1912944292
 20
13.4412021251
 30
0.0
 10
17.1943998852
 20
13.4370290945
 30
0.0
 10
17.198553596
 20
13.4314699398
 30
0.0
 10
17.2027011124
 20
13.4259076509
 30
0.0
 10
17.2058205059
 20
13.421741672
 30
0.0
 10
17.2078874436
 20
13.4189557693
 30
0.0
 10
17.2087673321
 20
13.4178076883
 30
0.0
 10
17.2094277139
 20
13.4168595735
 30
0.0
 10
17.2102472801
 20
13.4160198893
 30
0.0
 10
17.2117554815
 20
13.4146008211
 30
0.0
 10
17.2138714668
 20
13.4125472968
 30
0.0
 10
17.2172786042
 20
13.4092763397
 30
0.0
 10
17.2215301708
 20
13.4051826655
 30
0.0
 10
17.225784207
 20
13.4010905501
 30
0.0
 10
17.2291873931
 20
13.3978170989
 30
0.0
 10
17.2317384294
 20
13.3953603521
 30
0.0
 10
17.2338688221
 20
13.3933184904
 30
0.0
 10
17.2353511777
 20
13.3918785154
 30
0.0
 10
17.2362121694
 20
13.3910723389
 30
0.0
 10
17.2368186677
 20
13.3904207567
 30
0.0
 10
17.2375751824
 20
13.3899486407
 30
0.0
 10
17.2385315414
 20
13.3892565529
 30
0.0
 10
17.2402295494
 20
13.3880745654
 30
0.0
 10
17.2426425333
 20
13.3863707664
 30
0.0
 10
17.2455435491
 20
13.3843327202
 30
0.0
 10
17.2494097653
 20
13.3816131147
 30
0.0
 10
17.254242485
 20
13.3782139064
 30
0.0
 10
17.2590776626
 20
13.3748162667
 30
0.0
 10
17.2629399462
 20
13.3720941514
 30
0.0
 10
17.2653672906
 20
13.3704020538
 30
0.0
 10
17.2670395373
 20
13.3691990899
 30
0.0
 10
17.2680371864
 20
13.3685406213
 30
0.0
 10
17.2691933287
 20
13.3679911533
 30
0.0
 10
17.270584332
 20
13.3672670604
 30
0.0
 10
17.2739673357
 20
13.3655599115
 30
0.0
 10
17.2790229996
 20
13.3629861728
 30
0.0
 10
17.2857751818
 20
13.3595625881
 30
0.0
 10
17.2925223718
 20
13.3561345016
 30
0.0
 10
17.2975892681
 20
13.353570892
 30
0.0
 10
17.3009579194
 20
13.3518508003
 30
0.0
 10
17.3023751834
 20
13.351150389
 30
0.0
 10
17.3034771401
 20
13.3505520571
 30
0.0
 10
17.3046955876
 20
13.350092702
 30
0.0
 10
17.3068819947
 20
13.3493534025
 30
0.0
 10
17.3099771942
 20
13.3482635698
 30
0.0
 10
17.3149452952
 20
13.3465386658
 30
0.0
 10
17.3211500154
 20
13.3443760862
 30
0.0
 10
17.3310806027
 20
13.3409195797
 30
0.0
 10
17.3385278603
 20
13.3383263851
 30
0.0
 10
17.3434928505
 20
13.3365977698
 30
0.0
  0
SPLINE
  5
351
100
AcDbEntity
  8
02__ASM_ALL_AXES
100
AcDbSpline
 62
7
  6
BYLAYER
 70
0
 71
3
 72
65
 73
61
 74
0
 42
0.0000001
 43
0.0000001
 44
0.0000000001
 40
0.0
 40
0.0
 40
0.0
 40
0.0
 40
0.0625
 40
0.09375
 40
0.125
 40
0.140625
 40
0.15625
 40
0.1640625
 40
0.16796875
 40
0.171875
 40
0.1796875
 40
0.1875
 40
0.21875
 40
0.25
 40
0.28125
 40
0.3125
 40
0.3203125
 40
0.328125
 40
0.33203125
 40
0.3359375
 40
0.34375
 40
0.359375
 40
0.375
 40
0.40625
 40
0.4375
 40
0.453125
 40
0.46875
 40
0.484375
 40
0.4921875
 40
0.49609375
 40
0.5
 40
0.50390625
 40
0.5078125
 40
0.515625
 40
0.53125
 40
0.546875
 40
0.5625
 40
0.59375
 40
0.625
 40
0.640625
 40
0.65625
 40
0.6640625
 40
0.66796875
 40
0.671875
 40
0.6796875
 40
0.6875
 40
0.71875
 40
0.75
 40
0.78125
 40
0.8125
 40
0.8203125
 40
0.828125
 40
0.83203125
 40
0.8359375
 40
0.84375
 40
0.859375
 40
0.875
 40
0.90625
 40
0.9375
 40
1.0
 40
1.0
 40
1.0
 40
1.0
 10
17.3434928492
 20
13.3365977701
 30
0.0
 10
17.3489974364
 20
13.3354294178
 30
0.0
 10
17.3572545556
 20
13.3336771969
 30
0.0
 10
17.368263094
 20
13.3313396722
 30
0.0
 10
17.3751454179
 20
13.3298812822
 30
0.0
 10
17.3806467457
 20
13.3287087266
 30
0.0
 10
17.38409541
 20
13.3279892069
 30
0.0
 10
17.3864887641
 20
13.3274588335
 30
0.0
 10
17.3878887991
 20
13.3271975526
 30
0.0
 10
17.3894108842
 20
13.3270936723
 30
0.0
 10
17.3912717728
 20
13.3269100203
 30
0.0
 10
17.3957722451
 20
13.3265135479
 30
0.0
 10
17.4025084732
 20
13.3259000745
 30
0.0
 10
17.4114986604
 20
13.3250936038
 30
0.0
 10
17.4204855399
 20
13.3242811893
 30
0.0
 10
17.4272292103
 20
13.3236810895
 30
0.0
 10
17.4317201729
 20
13.3232675287
 30
0.0
 10
17.4335984615
 20
13.3231151436
 30
0.0
 10
17.4350846441
 20
13.3229467483
 30
0.0
 10
17.4366309767
 20
13.3229483563
 30
0.0
 10
17.4393650056
 20
13.3230301574
 30
0.0
 10
17.44325618
 20
13.3231058058
 30
0.0
 10
17.449490207
 20
13.3232498662
 30
0.0
 10
17.4572799563
 20
13.3234221112
 30
0.0
 10
17.4650706586
 20
13.3235968998
 30
0.0
 10
17.4713031606
 20
13.3237368904
 30
0.0
 10
17.475977145
 20
13.3238398779
 30
0.0
 10
17.4798734638
 20
13.3239323192
 30
0.0
 10
17.4825982619
 20
13.3239840068
 30
0.0
 10
17.4841593899
 20
13.3240338794
 30
0.0
 10
17.4853186843
 20
13.3240139938
 30
0.0
 10
17.4865221348
 20
13.3242130998
 30
0.0
 10
17.4881113333
 20
13.3244021877
 30
0.0
 10
17.4908996068
 20
13.3247686811
 30
0.0
 10
17.4948791032
 20
13.3252736409
 30
0.0
 10
17.4996561037
 20
13.3258875354
 30
0.0
 10
17.5060248816
 20
13.3267033849
 30
0.0
 10
17.513986013
 20
13.3277234142
 30
0.0
 10
17.5219472034
 20
13.3287459192
 30
0.0
 10
17.528315887
 20
13.3295578074
 30
0.0
 10
17.5322969564
 20
13.3300792893
 30
0.0
 10
17.5350824152
 20
13.3304161558
 30
0.0
 10
17.5366761245
 20
13.3306527282
 30
0.0
 10
17.538277437
 20
13.3310553181
 30
0.0
 10
17.5402764786
 20
13.3315018087
 30
0.0
 10
17.5450763189
 20
13.3326201027
 30
0.0
 10
17.5522751622
 20
13.3342777562
 30
0.0
 10
17.5618742311
 20
13.3365000611
 30
0.0
 10
17.5714728117
 20
13.3387161786
 30
0.0
 10
17.5786727538
 20
13.3403877536
 30
0.0
 10
17.58347119
 20
13.341488259
 30
0.0
 10
17.5854728009
 20
13.3419672975
 30
0.0
 10
17.5870688121
 20
13.3423027292
 30
0.0
 10
17.5886841233
 20
13.3428129614
 30
0.0
 10
17.5915198852
 20
13.343787084
 30
0.0
 10
17.5955662949
 20
13.345136313
 30
0.0
 10
17.6020431651
 20
13.3473187609
 30
0.0
 10
17.6101383572
 20
13.3500387087
 30
0.0
 10
17.6230911675
 20
13.3543951794
 30
0.0
 10
17.632805662
 20
13.3576615077
 30
0.0
 10
17.6392820168
 20
13.3598392876
 30
0.0
  0
LINE
  5
352
100
AcDbEntity
  8
02__ASM_ALL_AXES
100
AcDbLine
 62
7
  6
BYLAYER
 10
17.6392820184
 20
13.3598392882
 11
17.6437042866
 21
13.3615891793
  0
SPLINE
  5
353
100
AcDbEntity
  8
02__ASM_ALL_AXES
100
AcDbSpline
 62
7
  6
BYLAYER
 70
0
 71
3
 72
49
 73
45
 74
0
 42
0.0000001
 43
0.0000001
 44
0.0000000001
 40
0.0
 40
0.0
 40
0.0
 40
0.0
 40
0.0625
 40
0.125
 40
0.140625
 40
0.15625
 40
0.1640625
 40
0.171875
 40
0.1875
 40
0.21875
 40
0.25
 40
0.28125
 40
0.3125
 40
0.328125
 40
0.3359375
 40
0.34375
 40
0.359375
 40
0.375
 40
0.4375
 40
0.46875
 40
0.484375
 40
0.4921875
 40
0.5
 40
0.5078125
 40
0.515625
 40
0.53125
 40
0.5625
 40
0.625
 40
0.640625
 40
0.65625
 40
0.6640625
 40
0.671875
 40
0.6875
 40
0.71875
 40
0.75
 40
0.78125
 40
0.8125
 40
0.828125
 40
0.8359375
 40
0.84375
 40
0.859375
 40
0.875
 40
0.9375
 40
1.0
 40
1.0
 40
1.0
 40
1.0
 10
17.6437042867
 20
13.3615891793
 30
0.0
 10
17.6481910877
 20
13.3635663058
 30
0.0
 10
17.6571646001
 20
13.3675181875
 30
0.0
 10
17.6672602053
 20
13.3719747254
 30
0.0
 10
17.6739900199
 20
13.3749301888
 30
0.0
 10
17.6767949786
 20
13.3761846042
 30
0.0
 10
17.6790369182
 20
13.3771345592
 30
0.0
 10
17.6812862719
 20
13.3782804457
 30
0.0
 10
17.6852260649
 20
13.3803768284
 30
0.0
 10
17.6908527065
 20
13.3833237946
 30
0.0
 10
17.697604694
 20
13.3868817258
 30
0.0
 10
17.7043592261
 20
13.3904299562
 30
0.0
 10
17.709979506
 20
13.3934011744
 30
0.0
 10
17.713930432
 20
13.3954551162
 30
0.0
 10
17.716161973
 20
13.3966689081
 30
0.0
 10
17.7182950959
 20
13.3980336719
 30
0.0
 10
17.7209951658
 20
13.3996879916
 30
0.0
 10
17.7274473914
 20
13.4037011398
 30
0.0
 10
17.7349867616
 20
13.4083659617
 30
0.0
 10
17.74251526
 20
13.4130449032
 30
0.0
 10
17.7462887527
 20
13.4153735052
 30
0.0
 10
17.7484307414
 20
13.4167207501
 30
0.0
 10
17.7500774704
 20
13.4176844436
 30
0.0
 10
17.7515703958
 20
13.4188267899
 30
0.0
 10
17.7536146154
 20
13.4202875999
 30
0.0
 10
17.7571669621
 20
13.422873077
 30
0.0
 10
17.7642904306
 20
13.4280224867
 30
0.0
 10
17.7714013994
 20
13.4331849241
 30
0.0
 10
17.7775098897
 20
13.437597343
 30
0.0
 10
17.7800387558
 20
13.4394505264
 30
0.0
 10
17.782099723
 20
13.4408991045
 30
0.0
 10
17.7840222636
 20
13.4424718166
 30
0.0
 10
17.787322361
 20
13.4452817747
 30
0.0
 10
17.7920706268
 20
13.4492655911
 30
0.0
 10
17.7977531918
 20
13.4540602232
 30
0.0
 10
17.8034430268
 20
13.4588473008
 30
0.0
 10
17.8081731177
 20
13.4628500033
 30
0.0
 10
17.8115050211
 20
13.4656269108
 30
0.0
 10
17.813376672
 20
13.4672525039
 30
0.0
 10
17.8151267716
 20
13.4690241145
 30
0.0
 10
17.8173559437
 20
13.4711887173
 30
0.0
 10
17.8226717533
 20
13.476424852
 30
0.0
 10
17.8306599491
 20
13.484261658
 30
0.0
 10
17.837754683
 20
13.4912347767
 30
0.0
 10
17.8413027856
 20
13.4947204524
 30
0.0
  0
SPLINE
  5
354
100
AcDbEntity
  8
02__ASM_ALL_AXES
100
AcDbSpline
 62
7
  6
BYLAYER
 70
0
 71
3
 72
46
 73
42
 74
0
 42
0.0000001
 43
0.0000001
 44
0.0000000001
 40
0.0
 40
0.0
 40
0.0
 40
0.0
 40
0.0625
 40
0.125
 40
0.140625
 40
0.15625
 40
0.171875
 40
0.1875
 40
0.21875
 40
0.25
 40
0.28125
 40
0.3125
 40
0.328125
 40
0.3359375
 40
0.34375
 40
0.359375
 40
0.375
 40
0.4375
 40
0.46875
 40
0.484375
 40
0.5
 40
0.515625
 40
0.53125
 40
0.5625
 40
0.625
 40
0.640625
 40
0.65625
 40
0.6640625
 40
0.671875
 40
0.6875
 40
0.71875
 40
0.75
 40
0.78125
 40
0.8125
 40
0.828125
 40
0.8359375
 40
0.84375
 40
0.859375
 40
0.875
 40
0.9375
 40
1.0
 40
1.0
 40
1.0
 40
1.0
 10
17.8413027793
 20
13.4947204457
 30
0.0
 10
17.8438962919
 20
13.497665508
 30
0.0
 10
17.8490826151
 20
13.5035567224
 30
0.0
 10
17.8549203872
 20
13.5101794347
 30
0.0
 10
17.8588076293
 20
13.5146017278
 30
0.0
 10
17.8607594096
 20
13.5168002057
 30
0.0
 10
17.8626794739
 20
13.5190479279
 30
0.0
 10
17.8650885311
 20
13.5222792404
 30
0.0
 10
17.8681519755
 20
13.5262379997
 30
0.0
 10
17.8718044619
 20
13.5310228171
 30
0.0
 10
17.8754681395
 20
13.5357990198
 30
0.0
 10
17.8785036056
 20
13.5397793156
 30
0.0
 10
17.8806604928
 20
13.5425690252
 30
0.0
 10
17.8818433178
 20
13.5441571026
 30
0.0
 10
17.8828391601
 20
13.5457222537
 30
0.0
 10
17.8841478245
 20
13.5476865856
 30
0.0
 10
17.8872364955
 20
13.5523939885
 30
0.0
 10
17.8908520131
 20
13.5578938836
 30
0.0
 10
17.8944769346
 20
13.5633761229
 30
0.0
 10
17.8965239221
 20
13.5665336639
 30
0.0
 10
17.8981296645
 20
13.5688323659
 30
0.0
 10
17.899465598
 20
13.5713964661
 30
0.0
 10
17.9013408445
 20
13.574722645
 30
0.0
 10
17.9045798382
 20
13.5805870897
 30
0.0
 10
17.9078282028
 20
13.5864328757
 30
0.0
 10
17.9106229261
 20
13.5914523667
 30
0.0
 10
17.9117655805
 20
13.593538011
 30
0.0
 10
17.9127310158
 20
13.5952195895
 30
0.0
 10
17.9135086546
 20
13.5968535637
 30
0.0
 10
17.9147822203
 20
13.5996909248
 30
0.0
 10
17.9166474497
 20
13.6037557053
 30
0.0
 10
17.9188651933
 20
13.6086291863
 30
0.0
 10
17.9210917039
 20
13.6135014375
 30
0.0
 10
17.9229350157
 20
13.6175692923
 30
0.0
 10
17.9242469372
 20
13.6204012733
 30
0.0
 10
17.9249632067
 20
13.6220438558
 30
0.0
 10
17.9255537823
 20
13.6237780011
 30
0.0
 10
17.9263349655
 20
13.6259143855
 30
0.0
 10
17.9281744359
 20
13.6310674732
 30
0.0
 10
17.9309486164
 20
13.638786196
 30
0.0
 10
17.9334084696
 20
13.6456517157
 30
0.0
 10
17.9346391569
 20
13.6490839215
 30
0.0
  0
SPLINE
  5
355
100
AcDbEntity
  8
02__ASM_ALL_AXES
100
AcDbSpline
 62
7
  6
BYLAYER
 70
0
 71
3
 72
27
 73
23
 74
0
 42
0.0000001
 43
0.0000001
 44
0.0000000001
 40
0.0
 40
0.0
 40
0.0
 40
0.0
 40
0.125
 40
0.25
 40
0.28125
 40
0.3125
 40
0.34375
 40
0.375
 40
0.4375
 40
0.46875
 40
0.5
 40
0.53125
 40
0.5625
 40
0.625
 40
0.65625
 40
0.6875
 40
0.71875
 40
0.75
 40
0.8125
 40
0.84375
 40
0.875
 40
1.0
 40
1.0
 40
1.0
 40
1.0
 10
17.9346391557
 20
13.6490839178
 30
0.0
 10
17.9350646096
 20
13.650507974
 30
0.0
 10
17.9359308043
 20
13.6533576049
 30
0.0
 10
17.9368364828
 20
13.6565566064
 30
0.0
 10
17.9374305065
 20
13.6586976126
 30
0.0
 10
17.93772594
 20
13.6597530657
 30
0.0
 10
17.9380296394
 20
13.6608670511
 30
0.0
 10
17.9384731952
 20
13.6626273423
 30
0.0
 10
17.9389102914
 20
13.6643219524
 30
0.0
 10
17.9393377987
 20
13.6660073729
 30
0.0
 10
17.9396936554
 20
13.6673646883
 30
0.0
 10
17.9399134017
 20
13.6683535983
 30
0.0
 10
17.9402535807
 20
13.66979651
 30
0.0
 10
17.9405828769
 20
13.6712300421
 30
0.0
 10
17.9409094334
 20
13.6725984393
 30
0.0
 10
17.9411734528
 20
13.6738295216
 30
0.0
 10
17.9414434234
 20
13.6751193961
 30
0.0
 10
17.9418001676
 20
13.6768161996
 30
0.0
 10
17.9421643093
 20
13.6785335942
 30
0.0
 10
17.9425086708
 20
13.6802064872
 30
0.0
 10
17.94292495
 20
13.6824986783
 30
0.0
 10
17.9432979595
 20
13.6844653866
 30
0.0
 10
17.9435880119
 20
13.6860206576
 30
0.0
  0
LINE
  5
356
100
AcDbEntity
  8
02__ASM_ALL_AXES
100
AcDbLine
 62
7
  6
BYLAYER
 10
17.9435880117
 20
13.6860206567
 11
17.9442542032
 21
13.6899909572
  0
SPLINE
  5
357
100
AcDbEntity
  8
02__ASM_ALL_AXES
100
AcDbSpline
 62
7
  6
BYLAYER
 70
0
 71
3
 72
25
 73
21
 74
0
 42
0.0000001
 43
0.0000001
 44
0.0000000001
 40
0.0
 40
0.0
 40
0.0
 40
0.0
 40
0.0625
 40
0.125
 40
0.15625
 40
0.1875
 40
0.25
 40
0.3125
 40
0.375
 40
0.4375
 40
0.5
 40
0.5625
 40
0.625
 40
0.6875
 40
0.75
 40
0.8125
 40
0.84375
 40
0.875
 40
0.9375
 40
1.0
 40
1.0
 40
1.0
 40
1.0
 10
17.9442542032
 20
13.6899909572
 30
0.0
 10
17.9443982291
 20
13.6909783615
 30
0.0
 10
17.9446870716
 20
13.6929459768
 30
0.0
 10
17.9450441718
 20
13.6954414633
 30
0.0
 10
17.945338153
 20
13.6973623209
 30
0.0
 10
17.9456020922
 20
13.6995565312
 30
0.0
 10
17.9459147146
 20
13.7023920159
 30
0.0
 10
17.9463250768
 20
13.7057588849
 30
0.0
 10
17.9466222601
 20
13.7091202498
 30
0.0
 10
17.9468742622
 20
13.71247174
 30
0.0
 10
17.9471888274
 20
13.715834431
 30
0.0
 10
17.9472983214
 20
13.7191621935
 30
0.0
 10
17.9474702515
 20
13.722501367
 30
0.0
 10
17.9475975082
 20
13.7258298249
 30
0.0
 10
17.9476090207
 20
13.7291454983
 30
0.0
 10
17.947654986
 20
13.7318863776
 30
0.0
 10
17.9476623387
 20
13.7341387096
 30
0.0
 10
17.9475829253
 20
13.7366123146
 30
0.0
 10
17.9475136271
 20
13.7396278943
 30
0.0
 10
17.9474490552
 20
13.7420636499
 30
0.0
 10
17.947417911
 20
13.7432786162
 30
0.0
  0
SPLINE
  5
358
100
AcDbEntity
  8
02__ASM_ALL_AXES
100
AcDbSpline
 62
7
  6
BYLAYER
 70
0
 71
3
 72
53
 73
49
 74
0
 42
0.0000001
 43
0.0000001
 44
0.0000000001
 40
0.0
 40
0.0
 40
0.0
 40
0.0
 40
0.0625
 40
0.09375
 40
0.125
 40
0.140625
 40
0.15625
 40
0.1640625
 40
0.171875
 40
0.1875
 40
0.21875
 40
0.25
 40
0.28125
 40
0.3125
 40
0.328125
 40
0.3359375
 40
0.34375
 40
0.359375
 40
0.375
 40
0.4375
 40
0.46875
 40
0.484375
 40
0.4921875
 40
0.5
 40
0.5078125
 40
0.515625
 40
0.53125
 40
0.5625
 40
0.625
 40
0.640625
 40
0.65625
 40
0.6640625
 40
0.671875
 40
0.6796875
 40
0.6875
 40
0.71875
 40
0.75
 40
0.78125
 40
0.8125
 40
0.8203125
 40
0.828125
 40
0.8359375
 40
0.84375
 40
0.859375
 40
0.875
 40
0.90625
 40
0.9375
 40
1.0
 40
1.0
 40
1.0
 40
1.0
 10
17.947417911
 20
13.7432786151
 30
0.0
 10
17.9469849305
 20
13.7471658316
 30
0.0
 10
17.9463347645
 20
13.7529964348
 30
0.0
 10
17.9454706574
 20
13.7607714588
 30
0.0
 10
17.9449247971
 20
13.7656290022
 30
0.0
 10
17.9445013175
 20
13.769519247
 30
0.0
 10
17.9442065178
 20
13.7719410481
 30
0.0
 10
17.9440396759
 20
13.7739004811
 30
0.0
 10
17.9436209424
 20
13.7757796273
 30
0.0
 10
17.9427710727
 20
13.7790308092
 30
0.0
 10
17.9416185898
 20
13.7836950293
 30
0.0
 10
17.9402074756
 20
13.7892829676
 30
0.0
 10
17.9388103134
 20
13.7948759299
 30
0.0
 10
17.9376229508
 20
13.7995275902
 30
0.0
 10
17.9368341205
 20
13.8028007518
 30
0.0
 10
17.9363177239
 20
13.8046447304
 30
0.0
 10
17.935554248
 20
13.806389321
 30
0.0
 10
17.9346844112
 20
13.8086040568
 30
0.0
 10
17.9325267628
 20
13.8138912101
 30
0.0
 10
17.9300378981
 20
13.8200713922
 30
0.0
 10
17.9275251431
 20
13.8262407505
 30
0.0
 10
17.926287566
 20
13.8293345633
 30
0.0
 10
17.9255515628
 20
13.8310883448
 30
0.0
 10
17.9250806376
 20
13.8324434061
 30
0.0
 10
17.9242998119
 20
13.8336466226
 30
0.0
 10
17.923366815
 20
13.8353038772
 30
0.0
 10
17.9216836291
 20
13.8381793878
 30
0.0
 10
17.9183550078
 20
13.8439485558
 30
0.0
 10
17.9150016494
 20
13.8497075836
 30
0.0
 10
17.9121533855
 20
13.8546526601
 30
0.0
 10
17.9109349831
 20
13.8567033256
 30
0.0
 10
17.9100335587
 20
13.8583664606
 30
0.0
 10
17.9091565733
 20
13.8595518741
 30
0.0
 10
17.9082232799
 20
13.8607199294
 30
0.0
 10
17.9063856633
 20
13.8630649736
 30
0.0
 10
17.9036169985
 20
13.8665787214
 30
0.0
 10
17.8999327842
 20
13.8712662163
 30
0.0
 10
17.8962453265
 20
13.8759518662
 30
0.0
 10
17.8934839594
 20
13.8794697653
 30
0.0
 10
17.8916370179
 20
13.8818095051
 30
0.0
 10
17.8907241986
 20
13.882989207
 30
0.0
 10
17.8897699796
 20
13.8841306862
 30
0.0
 10
17.8883007048
 20
13.8854707892
 30
0.0
 10
17.886531558
 20
13.8872081897
 30
0.0
 10
17.8836632299
 20
13.8899532295
 30
0.0
 10
17.8800907316
 20
13.8933964503
 30
0.0
 10
17.8743674855
 20
13.898898911
 30
0.0
 10
17.8700766819
 20
13.9030272624
 30
0.0
 10
17.8672157838
 20
13.905779162
 30
0.0
  0
LINE
  5
359
100
AcDbEntity
  8
02__ASM_ALL_AXES
100
AcDbLine
 62
7
  6
BYLAYER
 10
17.8672157886
 20
13.9057791579
 11
17.863232796
 21
13.9090603007
  0
SPLINE
  5
35A
100
AcDbEntity
  8
02__ASM_ALL_AXES
100
AcDbSpline
 62
7
  6
BYLAYER
 70
0
 71
3
 72
29
 73
25
 74
0
 42
0.0000001
 43
0.0000001
 44
0.0000000001
 40
0.0
 40
0.0
 40
0.0
 40
0.0
 40
0.125
 40
0.1875
 40
0.25
 40
0.28125
 40
0.3125
 40
0.328125
 40
0.34375
 40
0.375
 40
0.4375
 40
0.46875
 40
0.5
 40
0.53125
 40
0.5625
 40
0.625
 40
0.65625
 40
0.671875
 40
0.6875
 40
0.71875
 40
0.75
 40
0.8125
 40
0.875
 40
1.0
 40
1.0
 40
1.0
 40
1.0
 10
17.8632327959
 20
13.9090603008
 30
0.0
 10
17.8617147963
 20
13.910246217
 30
0.0
 10
17.859443973
 20
13.9120309202
 30
0.0
 10
17.8563915042
 20
13.914387209
 30
0.0
 10
17.8544208877
 20
13.9158096863
 30
0.0
 10
17.8528641978
 20
13.9169554523
 30
0.0
 10
17.8518731702
 20
13.9176771972
 30
0.0
 10
17.8511188286
 20
13.9182391082
 30
0.0
 10
17.8502250421
 20
13.9188584459
 30
0.0
 10
17.8485973624
 20
13.9199676081
 30
0.0
 10
17.8467567807
 20
13.9212328548
 30
0.0
 10
17.8449299602
 20
13.9224762648
 30
0.0
 10
17.8434989379
 20
13.9234766995
 30
0.0
 10
17.8423046624
 20
13.9242165437
 30
0.0
 10
17.8406311503
 20
13.9252935874
 30
0.0
 10
17.8389710137
 20
13.926348304
 30
0.0
 10
17.8375365348
 20
13.9272703435
 30
0.0
 10
17.8366790466
 20
13.9278098225
 30
0.0
 10
17.8356766446
 20
13.9283996247
 30
0.0
 10
17.8344734265
 20
13.9291202107
 30
0.0
 10
17.8325194848
 20
13.9302791684
 30
0.0
 10
17.8300938655
 20
13.931749382
 30
0.0
 10
17.8261628901
 20
13.9339519784
 30
0.0
 10
17.8232066445
 20
13.935572227
 30
0.0
 10
17.821237595
 20
13.9366594369
 30
0.0
  0
SPLINE
  5
35B
100
AcDbEntity
  8
02__ASM_ALL_AXES
100
AcDbSpline
 62
7
  6
BYLAYER
 70
0
 71
3
 72
66
 73
62
 74
0
 42
0.0000001
 43
0.0000001
 44
0.0000000001
 40
0.0
 40
0.0
 40
0.0
 40
0.0
 40
0.0625
 40
0.09375
 40
0.125
 40
0.140625
 40
0.15625
 40
0.1640625
 40
0.16796875
 40
0.171875
 40
0.1796875
 40
0.1875
 40
0.203125
 40
0.21875
 40
0.25
 40
0.28125
 40
0.3125
 40
0.3203125
 40
0.328125
 40
0.33203125
 40
0.3359375
 40
0.34375
 40
0.359375
 40
0.375
 40
0.40625
 40
0.4375
 40
0.453125
 40
0.46875
 40
0.484375
 40
0.4921875
 40
0.49609375
 40
0.5
 40
0.50390625
 40
0.5078125
 40
0.515625
 40
0.53125
 40
0.546875
 40
0.5625
 40
0.59375
 40
0.625
 40
0.640625
 40
0.65625
 40
0.6640625
 40
0.66796875
 40
0.671875
 40
0.6796875
 40
0.6875
 40
0.71875
 40
0.75
 40
0.78125
 40
0.8125
 40
0.8203125
 40
0.828125
 40
0.83203125
 40
0.8359375
 40
0.84375
 40
0.859375
 40
0.875
 40
0.90625
 40
0.9375
 40
1.0
 40
1.0
 40
1.0
 40
1.0
 10
17.8212375935
 20
13.9366594377
 30
0.0
 10
17.8162802071
 20
13.9388452188
 30
0.0
 10
17.8088438178
 20
13.9421235957
 30
0.0
 10
17.7989298708
 20
13.9464959435
 30
0.0
 10
17.7927310732
 20
13.9492262057
 30
0.0
 10
17.7877779193
 20
13.9514160133
 30
0.0
 10
17.7846687779
 20
13.9527718759
 30
0.0
 10
17.7825192743
 20
13.9537465661
 30
0.0
 10
17.7812489061
 20
13.9542634998
 30
0.0
 10
17.7798200149
 20
13.9546296262
 30
0.0
 10
17.7780881788
 20
13.95513892
 30
0.0
 10
17.7752869087
 20
13.9559249358
 30
0.0
 10
17.7717957012
 20
13.956917319
 30
0.0
 10
17.7662040008
 20
13.958499715
 30
0.0
 10
17.7592161184
 20
13.9604788845
 30
0.0
 10
17.7508309453
 20
13.9628563763
 30
0.0
 10
17.7445391165
 20
13.9646306205
 30
0.0
 10
17.7403493897
 20
13.9658274633
 30
0.0
 10
17.7385964464
 20
13.9663052574
 30
0.0
 10
17.7372109462
 20
13.9667362284
 30
0.0
 10
17.7357638074
 20
13.9669889689
 30
0.0
 10
17.7332026757
 20
13.967348455
 30
0.0
 10
17.7295588573
 20
13.9679052112
 30
0.0
 10
17.7237204046
 20
13.9687718836
 30
0.0
 10
17.716425149
 20
13.9698634375
 30
0.0
 10
17.7091290812
 20
13.9709523096
 30
0.0
 10
17.7032919279
 20
13.9718232729
 30
0.0
 10
17.6989154477
 20
13.9724785077
 30
0.0
 10
17.6952638893
 20
13.973017885
 30
0.0
 10
17.692716625
 20
13.9734085371
 30
0.0
 10
17.6912472615
 20
13.9736113259
 30
0.0
 10
17.6901840687
 20
13.973821001
 30
0.0
 10
17.6889724487
 20
13.9738105627
 30
0.0
 10
17.6874087284
 20
13.9738734229
 30
0.0
 10
17.6846480959
 20
13.9739476566
 30
0.0
 10
17.6807169463
 20
13.9740724019
 30
0.0
 10
17.6759941694
 20
13.9742141137
 30
0.0
 10
17.6696990158
 20
13.9744057489
 30
0.0
 10
17.6618294508
 20
13.9746451042
 30
0.0
 10
17.6539600249
 20
13.9748818564
 30
0.0
 10
17.6476646487
 20
13.9750776564
 30
0.0
 10
17.6437295577
 20
13.9751853374
 30
0.0
 10
17.6409759678
 20
13.9752901719
 30
0.0
 10
17.6394009628
 20
13.9753039864
 30
0.0
 10
17.6378202136
 20
13.9751441991
 30
0.0
 10
17.6358462409
 20
13.9750038041
 30
0.0
 10
17.6311070855
 20
13.9746180054
 30
0.0
 10
17.6239991021
 20
13.9740599966
 30
0.0
 10
17.6145210343
 20
13.9733033438
 30
0.0
 10
17.6050443937
 20
13.9725531186
 30
0.0
 10
17.5979331989
 20
13.9719806477
 30
0.0
 10
17.5931981469
 20
13.9716133284
 30
0.0
 10
17.5912166661
 20
13.9714391216
 30
0.0
 10
17.5896514091
 20
13.9713491004
 30
0.0
 10
17.5880132753
 20
13.9710786278
 30
0.0
 10
17.5851126808
 20
13.9705214591
 30
0.0
 10
17.5809866411
 20
13.9697692482
 30
0.0
 10
17.5743751043
 20
13.9685412638
 30
0.0
 10
17.5661140654
 20
13.9670146576
 30
0.0
 10
17.5528945045
 20
13.9645673864
 30
0.0
 10
17.5429802611
 20
13.9627329907
 30
0.0
 10
17.5363706705
 20
13.9615098253
 30
0.0
  0
SPLINE
  5
35C
100
AcDbEntity
  8
02__ASM_ALL_AXES
100
AcDbSpline
 62
7
  6
BYLAYER
 70
0
 71
3
 72
34
 73
30
 74
0
 42
0.0000001
 43
0.0000001
 44
0.0000000001
 40
0.0
 40
0.0
 40
0.0
 40
0.0
 40
0.125
 40
0.1875
 40
0.25
 40
0.28125
 40
0.3125
 40
0.328125
 40
0.34375
 40
0.375
 40
0.4375
 40
0.46875
 40
0.484375
 40
0.5
 40
0.515625
 40
0.53125
 40
0.5625
 40
0.625
 40
0.65625
 40
0.671875
 40
0.6875
 40
0.71875
 40
0.75
 40
0.78125
 40
0.8125
 40
0.84375
 40
0.875
 40
0.9375
 40
1.0
 40
1.0
 40
1.0
 40
1.0
 10
17.5363706631
 20
13.9615098235
 30
0.0
 10
17.5332585207
 20
13.9607297121
 30
0.0
 10
17.5285888927
 20
13.9595702428
 30
0.0
 10
17.5223683802
 20
13.9579814923
 30
0.0
 10
17.5184853896
 20
13.9568868928
 30
0.0
 10
17.5153859323
 20
13.9560368888
 30
0.0
 10
17.5134290188
 20
13.9554922624
 30
0.0
 10
17.5119091606
 20
13.9550822398
 30
0.0
 10
17.5102224144
 20
13.9545802024
 30
0.0
 10
17.5071919632
 20
13.9536588018
 30
0.0
 10
17.5037679407
 20
13.952624656
 30
0.0
 10
17.5007472717
 20
13.9517130446
 30
0.0
 10
17.499043756
 20
13.9511942257
 30
0.0
 10
17.4977054194
 20
13.9508007299
 30
0.0
 10
17.4965985914
 20
13.9504237097
 30
0.0
 10
17.4950418931
 20
13.949915166
 30
0.0
 10
17.4923571315
 20
13.9490289759
 30
0.0
 10
17.4892610297
 20
13.9480079446
 30
0.0
 10
17.4865854624
 20
13.9471324178
 30
0.0
 10
17.4850130024
 20
13.9466055943
 30
0.0
 10
17.4832787197
 20
13.9459792249
 30
0.0
 10
17.48116658
 20
13.9452304128
 30
0.0
 10
17.4786073211
 20
13.944317239
 30
0.0
 10
17.4760576857
 20
13.943407823
 30
0.0
 10
17.4734942474
 20
13.942497975
 30
0.0
 10
17.470976397
 20
13.9415860971
 30
0.0
 10
17.4678333182
 20
13.9403591916
 30
0.0
 10
17.4638305362
 20
13.9388293827
 30
0.0
 10
17.4606508428
 20
13.9376043705
 30
0.0
 10
17.4590581796
 20
13.93699201
 30
0.0
  0
SPLINE
  5
35D
100
AcDbEntity
  8
02__ASM_ALL_AXES
100
AcDbSpline
 62
7
  6
BYLAYER
 70
0
 71
3
 72
61
 73
57
 74
0
 42
0.0000001
 43
0.0000001
 44
0.0000000001
 40
0.0
 40
0.0
 40
0.0
 40
0.0
 40
0.0625
 40
0.09375
 40
0.125
 40
0.140625
 40
0.15625
 40
0.1640625
 40
0.16796875
 40
0.171875
 40
0.1796875
 40
0.1875
 40
0.21875
 40
0.25
 40
0.28125
 40
0.3125
 40
0.3203125
 40
0.328125
 40
0.33203125
 40
0.3359375
 40
0.34375
 40
0.359375
 40
0.375
 40
0.40625
 40
0.4375
 40
0.453125
 40
0.46875
 40
0.484375
 40
0.4921875
 40
0.5
 40
0.5078125
 40
0.515625
 40
0.53125
 40
0.5625
 40
0.625
 40
0.640625
 40
0.65625
 40
0.6640625
 40
0.66796875
 40
0.671875
 40
0.6796875
 40
0.6875
 40
0.71875
 40
0.75
 40
0.78125
 40
0.8125
 40
0.8203125
 40
0.828125
 40
0.83203125
 40
0.8359375
 40
0.84375
 40
0.859375
 40
0.875
 40
0.90625
 40
0.9375
 40
1.0
 40
1.0
 40
1.0
 40
1.0
 10
17.4590581805
 20
13.9369920103
 30
0.0
 10
17.4531006869
 20
13.9342995928
 30
0.0
 10
17.4441645063
 20
13.9302606625
 30
0.0
 10
17.4322493603
 20
13.924876638
 30
0.0
 10
17.4248028908
 20
13.9215090894
 30
0.0
 10
17.4188445825
 20
13.9188208266
 30
0.0
 10
17.4151232233
 20
13.9171274888
 30
0.0
 10
17.4125130944
 20
13.9159685532
 30
0.0
 10
17.4110296928
 20
13.9152649978
 30
0.0
 10
17.4095768029
 20
13.9144058614
 30
0.0
 10
17.4077502607
 20
13.9133851201
 30
0.0
 10
17.40337515
 20
13.9108915639
 30
0.0
 10
17.396808784
 20
13.9071697354
 30
0.0
 10
17.3880561815
 20
13.9021961542
 30
0.0
 10
17.3793012636
 20
13.8972276671
 30
0.0
 10
17.3727401073
 20
13.8934943766
 30
0.0
 10
17.3683583397
 20
13.8910154663
 30
0.0
 10
17.3665439777
 20
13.8899679274
 30
0.0
 10
17.3650659557
 20
13.8891640842
 30
0.0
 10
17.3636849633
 20
13.888235217
 30
0.0
 10
17.3613133093
 20
13.88655161
 30
0.0
 10
17.3579017056
 20
13.8841767696
 30
0.0
 10
17.3524563145
 20
13.8803600592
 30
0.0
 10
17.3456448714
 20
13.8755951637
 30
0.0
 10
17.3388357764
 20
13.8708275056
 30
0.0
 10
17.3333866282
 20
13.8670152155
 30
0.0
 10
17.3293039748
 20
13.8641521461
 30
0.0
 10
17.3258885178
 20
13.8617783294
 30
0.0
 10
17.3231858384
 20
13.8598522232
 30
0.0
 10
17.3210777179
 20
13.8584815576
 30
0.0
 10
17.3192791979
 20
13.8568287619
 30
0.0
 10
17.3167731819
 20
13.8547234405
 30
0.0
 10
17.3124379411
 20
13.8509933189
 30
0.0
 10
17.3037309563
 20
13.8435661535
 30
0.0
 10
17.2950418418
 20
13.8361237577
 30
0.0
 10
17.2875818096
 20
13.8297535709
 30
0.0
 10
17.2844853195
 20
13.8270915629
 30
0.0
 10
17.2822939467
 20
13.8252436722
 30
0.0
 10
17.2810790277
 20
13.8241634668
 30
0.0
 10
17.2800045795
 20
13.8229918581
 30
0.0
 10
17.2786135046
 20
13.8215585898
 30
0.0
 10
17.2753144527
 20
13.8180930261
 30
0.0
 10
17.2703491333
 20
13.8129055685
 30
0.0
 10
17.26373894
 20
13.8059823289
 30
0.0
 10
17.2571235316
 20
13.7990623793
 30
0.0
 10
17.2521699461
 20
13.7938675194
 30
0.0
 10
17.2488559008
 20
13.7904114141
 30
0.0
 10
17.2474922595
 20
13.7889608395
 30
0.0
 10
17.2463612057
 20
13.7878249402
 30
0.0
 10
17.2453769463
 20
13.7865992241
 30
0.0
 10
17.2437226964
 20
13.7844124898
 30
0.0
 10
17.2413238966
 20
13.781310357
 30
0.0
 10
17.2375057043
 20
13.7763347762
 30
0.0
 10
17.2327261516
 20
13.7701194685
 30
0.0
 10
17.2250826918
 20
13.7601726361
 30
0.0
 10
17.2193492363
 20
13.7527130383
 30
0.0
 10
17.215527124
 20
13.7477398562
 30
0.0
  0
LINE
  5
35E
100
AcDbEntity
  8
02__ASM_ALL_AXES
100
AcDbLine
 62
7
  6
BYLAYER
 10
17.2155271207
 20
13.7477398514
 11
17.2125563584
 21
13.743323918
  0
SPLINE
  5
35F
100
AcDbEntity
  8
02__ASM_ALL_AXES
100
AcDbSpline
 62
7
  6
BYLAYER
 70
0
 71
3
 72
32
 73
28
 74
0
 42
0.0000001
 43
0.0000001
 44
0.0000000001
 40
0.0
 40
0.0
 40
0.0
 40
0.0
 40
0.0625
 40
0.125
 40
0.15625
 40
0.171875
 40
0.1875
 40
0.21875
 40
0.25
 40
0.3125
 40
0.34375
 40
0.375
 40
0.4375
 40
0.46875
 40
0.5
 40
0.53125
 40
0.5625
 40
0.625
 40
0.65625
 40
0.6875
 40
0.75
 40
0.8125
 40
0.828125
 40
0.84375
 40
0.875
 40
0.9375
 40
1.0
 40
1.0
 40
1.0
 40
1.0
 10
17.2125563585
 20
13.7433239181
 30
0.0
 10
17.2114239947
 20
13.7415398856
 30
0.0
 10
17.2091590272
 20
13.7379748094
 30
0.0
 10
17.2063290169
 20
13.7335035199
 30
0.0
 10
17.2043458064
 20
13.7304010774
 30
0.0
 10
17.2032159606
 20
13.7285856619
 30
0.0
 10
17.2020991544
 20
13.7266098647
 30
0.0
 10
17.200698089
 20
13.7241951482
 30
0.0
 10
17.1984626741
 20
13.7203001737
 30
0.0
 10
17.1962057053
 20
13.7164176715
 30
0.0
 10
17.194008681
 20
13.7125213235
 30
0.0
 10
17.1920260163
 20
13.7085868273
 30
0.0
 10
17.1899734475
 20
13.7046643602
 30
0.0
 10
17.1879698212
 20
13.7007344171
 30
0.0
 10
17.1863901779
 20
13.6977973585
 30
0.0
 10
17.1850937577
 20
13.694822443
 30
0.0
 10
17.1832624639
 20
13.6908694789
 30
0.0
 10
17.1814811255
 20
13.6869106887
 30
0.0
 10
17.1796269712
 20
13.6829591844
 30
0.0
 10
17.1779974733
 20
13.6789863051
 30
0.0
 10
17.1760306174
 20
13.6740241909
 30
0.0
 10
17.1742548251
 20
13.6695238232
 30
0.0
 10
17.1730453254
 20
13.6665790273
 30
0.0
 10
17.1723098593
 20
13.6644832832
 30
0.0
 10
17.171057296
 20
13.6607517103
 30
0.0
 10
17.1692497607
 20
13.6554545871
 30
0.0
 10
17.1678092666
 20
13.6512066195
 30
0.0
 10
17.1670883279
 20
13.6490839194
 30
0.0
  0
SPLINE
  5
360
100
AcDbEntity
  8
0
100
AcDbSpline
 62
7
  6
BYLAYER
 70
0
 71
3
 72
21
 73
17
 74
0
 42
0.0000001
 43
0.0000001
 44
0.0000000001
 40
0.0
 40
0.0
 40
0.0
 40
0.0
 40
0.1324824576
 40
0.2011727212
 40
0.2707179116
 40
0.4097755208
 40
0.4782500517
 40
0.5452191035
 40
0.6102110248
 40
0.6728614696
 40
0.7329450328
 40
0.7904063118
 40
0.8453873094
 40
0.8982431366
 40
0.9495364316
 40
1.0
 40
1.0
 40
1.0
 40
1.0
 10
17.6718969032
 20
14.0407473726
 30
0.0
 10
17.6290609245
 20
14.0407473726
 30
0.0
 10
17.563804211
 20
14.0330480023
 30
0.0
 10
17.479325536
 20
14.0097916147
 30
0.0
 10
17.3955418231
 20
13.9775299239
 30
0.0
 10
17.3168965969
 20
13.933209448
 30
0.0
 10
17.2468236843
 20
13.8785445957
 30
0.0
 10
17.2000141318
 20
13.8335400238
 30
0.0
 10
17.159574876
 20
13.7851601899
 30
0.0
 10
17.1262356442
 20
13.7342605535
 30
0.0
 10
17.1006155756
 20
13.6817458504
 30
0.0
 10
17.0832050074
 20
13.6285459629
 30
0.0
 10
17.0743612005
 20
13.5756129941
 30
0.0
 10
17.0743057696
 20
13.523906688
 30
0.0
 10
17.0830922351
 20
13.4744267404
 30
0.0
 10
17.0948174202
 20
13.4434407415
 30
0.0
 10
17.1020073281
 20
13.4287937297
 30
0.0
  0
SPLINE
  5
361
100
AcDbEntity
  8
0
100
AcDbSpline
 62
7
  6
BYLAYER
 70
0
 71
3
 72
14
 73
10
 74
0
 42
0.0000001
 43
0.0000001
 44
0.0000000001
 40
0.0
 40
0.0
 40
0.0
 40
0.0
 40
0.2773975432
 40
0.4084919385
 40
0.5344224091
 40
0.6556036481
 40
0.772814389
 40
0.8871599561
 40
1.0
 40
1.0
 40
1.0
 40
1.0
 10
17.6718969032
 20
14.0407473726
 30
0.0
 10
17.7079063544
 20
14.0407473726
 30
0.0
 10
17.7612578466
 20
14.0354495445
 30
0.0
 10
17.8280522046
 20
14.0161870744
 30
0.0
 10
17.8732197293
 20
13.9965512192
 30
0.0
 10
17.9136658266
 20
13.9717225567
 30
0.0
 10
17.9487792286
 20
13.9420395846
 30
0.0
 10
17.9779926906
 20
13.9079449259
 30
0.0
 10
17.9932655126
 20
13.8825232624
 30
0.0
 10
17.999720155
 20
13.8693741059
 30
0.0
  0
SPLINE
  5
362
100
AcDbEntity
  8
02___PRT_ALL_AXES
100
AcDbSpline
 62
7
  6
BYLAYER
 70
0
 71
3
 72
14
 73
10
 74
0
 42
0.0000001
 43
0.0000001
 44
0.0000000001
 40
0.0
 40
0.0
 40
0.0
 40
0.0
 40
0.2699413971
 40
0.409422653
 40
0.5451038101
 40
0.6729232389
 40
0.7905540687
 40
0.898363335
 40
1.0
 40
1.0
 40
1.0
 40
1.0
 10
17.8567420735
 20
13.4915427005
 30
0.0
 10
17.8639924044
 20
13.4915427005
 30
0.0
 10
17.8750961093
 20
13.4941681976
 30
0.0
 10
17.887888526
 20
13.5013863086
 30
0.0
 10
17.8961622306
 20
13.5084937941
 30
0.0
 10
17.9023748005
 20
13.5167406304
 30
0.0
 10
17.9060826858
 20
13.5256040628
 30
0.0
 10
17.9069417626
 20
13.5345008047
 30
0.0
 10
17.9054371397
 20
13.5400812767
 30
0.0
 10
17.9042354061
 20
13.5425323817
 30
0.0
  0
SPLINE
  5
363
100
AcDbEntity
  8
02___PRT_ALL_AXES
100
AcDbSpline
 62
7
  6
BYLAYER
 70
0
 71
3
 72
19
 73
15
 74
0
 42
0.0000001
 43
0.0000001
 44
0.0000000001
 40
0.0
 40
0.0
 40
0.0
 40
0.0
 40
0.0533440231
 40
0.1095469655
 40
0.1691887665
 40
0.2324853322
 40
0.3679987391
 40
0.5101117299
 40
0.6498836108
 40
0.779221135
 40
0.8387828776
 40
0.8948654775
 40
0.9481769832
 40
1.0
 40
1.0
 40
1.0
 40
1.0
 10
17.570275883
 20
13.3244633861
 30
0.0
 10
17.5715273973
 20
13.3230195679
 30
0.0
 10
17.5744866883
 20
13.3203752803
 30
0.0
 10
17.579841052
 20
13.3174437974
 30
0.0
 10
17.5860149246
 20
13.3155520734
 30
0.0
 10
17.5952479387
 20
13.3144584188
 30
0.0
 10
17.6075591178
 20
13.3159964186
 30
0.0
 10
17.6215181801
 20
13.3217944647
 30
0.0
 10
17.633351066
 20
13.3308474828
 30
0.0
 10
17.6404265075
 20
13.3405428155
 30
0.0
 10
17.6435043164
 20
13.348813802
 30
0.0
 10
17.6444326449
 20
13.3548431224
 30
0.0
 10
17.6439856003
 20
13.3606540863
 30
0.0
 10
17.6427544537
 20
13.3642644922
 30
0.0
 10
17.6419334526
 20
13.3659293126
 30
0.0
  0
SPLINE
  5
364
100
AcDbEntity
  8
02___PRT_ALL_AXES
100
AcDbSpline
 62
7
  6
BYLAYER
 70
0
 71
3
 72
10
 73
6
 74
0
 42
0.0000001
 43
0.0000001
 44
0.0000000001
 40
0.0
 40
0.0
 40
0.0
 40
0.0
 40
0.5161344746
 40
0.7604943016
 40
1.0
 40
1.0
 40
1.0
 40
1.0
 10
17.3491934062
 20
13.3475423765
 30
0.0
 10
17.3501471533
 20
13.3506287033
 30
0.0
 10
17.3508615709
 20
13.3554703073
 30
0.0
 10
17.3499318011
 20
13.3616923479
 30
0.0
 10
17.3488789528
 20
13.3645601483
 30
0.0
 10
17.3482176503
 20
13.3659053861
 30
0.0
  0
SPLINE
  5
365
100
AcDbEntity
  8
02___PRT_ALL_AXES
100
AcDbSpline
 62
7
  6
BYLAYER
 70
0
 71
3
 72
12
 73
8
 74
0
 42
0.0000001
 43
0.0000001
 44
0.0000000001
 40
0.0
 40
0.0
 40
0.0
 40
0.0
 40
0.28537213
 40
0.5482032364
 40
0.783336304
 40
0.8930741235
 40
1.0
 40
1.0
 40
1.0
 40
1.0
 10
17.1777087422
 20
13.5011023314
 30
0.0
 10
17.181550178
 20
13.5036894085
 30
0.0
 10
17.1883617516
 20
13.5095979162
 30
0.0
 10
17.1954243474
 20
13.5203855947
 30
0.0
 10
17.1977790332
 20
13.5302566152
 30
0.0
 10
17.1970450673
 20
13.5376103134
 30
0.0
 10
17.1958769729
 20
13.5409691406
 30
0.0
 10
17.1951136609
 20
13.5425275718
 30
0.0
  0
SPLINE
  5
366
100
AcDbEntity
  8
02___PRT_ALL_AXES
100
AcDbSpline
 62
7
  6
BYLAYER
 70
0
 71
3
 72
14
 73
10
 74
0
 42
0.0000001
 43
0.0000001
 44
0.0000000001
 40
0.0
 40
0.0
 40
0.0
 40
0.0
 40
0.2699413971
 40
0.409422653
 40
0.5451038101
 40
0.6729232389
 40
0.7905540687
 40
0.898363335
 40
1.0
 40
1.0
 40
1.0
 40
1.0
 10
17.224813216
 20
13.7413478926
 30
0.0
 10
17.2320635469
 20
13.7413478926
 30
0.0
 10
17.2431672518
 20
13.7439733897
 30
0.0
 10
17.2559596685
 20
13.7511915006
 30
0.0
 10
17.2642333731
 20
13.7582989861
 30
0.0
 10
17.2704459429
 20
13.7665458224
 30
0.0
 10
17.2741538282
 20
13.7754092549
 30
0.0
 10
17.275012905
 20
13.7843059967
 30
0.0
 10
17.2735082822
 20
13.7898864687
 30
0.0
 10
17.2723065486
 20
13.7923375737
 30
0.0
  0
SPLINE
  5
367
100
AcDbEntity
  8
02___PRT_ALL_AXES
100
AcDbSpline
 62
7
  6
BYLAYER
 70
0
 71
3
 72
19
 73
15
 74
0
 42
0.0000001
 43
0.0000001
 44
0.0000000001
 40
0.0
 40
0.0
 40
0.0
 40
0.0
 40
0.0533440231
 40
0.1095469655
 40
0.1691887665
 40
0.2324853322
 40
0.3679987391
 40
0.5101117299
 40
0.6498836108
 40
0.779221135
 40
0.8387828776
 40
0.8948654775
 40
0.9481769832
 40
1.0
 40
1.0
 40
1.0
 40
1.0
 10
17.4629136656
 20
13.9275464687
 30
0.0
 10
17.4641651799
 20
13.9261026505
 30
0.0
 10
17.4671244709
 20
13.9234583628
 30
0.0
 10
17.4724788346
 20
13.9205268799
 30
0.0
 10
17.4786527072
 20
13.9186351559
 30
0.0
 10
17.4878857213
 20
13.9175415013
 30
0.0
 10
17.5001969003
 20
13.9190795012
 30
0.0
 10
17.5141559626
 20
13.9248775473
 30
0.0
 10
17.5259888486
 20
13.9339305654
 30
0.0
 10
17.5330642901
 20
13.9436258981
 30
0.0
 10
17.536142099
 20
13.9518968845
 30
0.0
 10
17.5370704275
 20
13.9579262049
 30
0.0
 10
17.5366233829
 20
13.9637371688
 30
0.0
 10
17.5353922363
 20
13.9673475747
 30
0.0
 10
17.5345712352
 20
13.9690123952
 30
0.0
  0
SPLINE
  5
368
100
AcDbEntity
  8
02___PRT_ALL_AXES
100
AcDbSpline
 62
7
  6
BYLAYER
 70
0
 71
3
 72
10
 73
6
 74
0
 42
0.0000001
 43
0.0000001
 44
0.0000000001
 40
0.0
 40
0.0
 40
0.0
 40
0.0
 40
0.5161344746
 40
0.7604943016
 40
1.0
 40
1.0
 40
1.0
 40
1.0
 10
17.8292891598
 20
13.9506254591
 30
0.0
 10
17.8302429069
 20
13.9537117858
 30
0.0
 10
17.8309573245
 20
13.9585533899
 30
0.0
 10
17.8300275546
 20
13.9647754305
 30
0.0
 10
17.8289747064
 20
13.9676432308
 30
0.0
 10
17.8283134039
 20
13.9689884687
 30
0.0
  0
SPLINE
  5
369
100
AcDbEntity
  8
02___PRT_ALL_AXES
100
AcDbSpline
 62
7
  6
BYLAYER
 70
0
 71
3
 72
12
 73
8
 74
0
 42
0.0000001
 43
0.0000001
 44
0.0000000001
 40
0.0
 40
0.0
 40
0.0
 40
0.0
 40
0.28537213
 40
0.5482032364
 40
0.783336304
 40
0.8930741235
 40
1.0
 40
1.0
 40
1.0
 40
1.0
 10
17.9640288856
 20
13.7509075234
 30
0.0
 10
17.9678703214
 20
13.7534946005
 30
0.0
 10
17.974681895
 20
13.7594031082
 30
0.0
 10
17.9817444908
 20
13.7701907867
 30
0.0
 10
17.9840991766
 20
13.7800618072
 30
0.0
 10
17.9833652106
 20
13.7874155055
 30
0.0
 10
17.9821971162
 20
13.7907743327
 30
0.0
 10
17.9814338042
 20
13.7923327638
 30
0.0
  0
SPLINE
  5
36A
100
AcDbEntity
  8
0
100
AcDbSpline
 62
7
  6
BYLAYER
 70
0
 71
3
 72
11
 73
7
 74
0
 42
0.0000001
 43
0.0000001
 44
0.0000000001
 40
0.0
 40
0.0
 40
0.0
 40
0.0
 40
0.2643796584
 40
0.5171042956
 40
0.7609087708
 40
1.0
 40
1.0
 40
1.0
 40
1.0
 10
17.7555439624
 20
13.6490839178
 30
0.0
 10
17.7581538338
 20
13.6575294645
 30
0.0
 10
17.7619753288
 20
13.6744885249
 30
0.0
 10
17.7631283439
 20
13.7000457362
 30
0.0
 10
17.7594905285
 20
13.7245287491
 30
0.0
 10
17.7538786602
 20
13.7398127396
 30
0.0
 10
17.7503563769
 20
13.7469890121
 30
0.0
  0
SPLINE
  5
36B
100
AcDbEntity
  8
0
100
AcDbSpline
 62
7
  6
BYLAYER
 70
0
 71
3
 72
19
 73
15
 74
0
 42
0.0000001
 43
0.0000001
 44
0.0000000001
 40
0.0
 40
0.0
 40
0.0
 40
0.0
 40
0.0507462123
 40
0.1026303083
 40
0.1566098205
 40
0.2133407452
 40
0.3356277874
 40
0.4012099063
 40
0.46901089
 40
0.6081793836
 40
0.7469386969
 40
0.8142573344
 40
0.8792050208
 40
1.0
 40
1.0
 40
1.0
 40
1.0
 10
17.3513711062
 20
13.5511788235
 30
0.0
 10
17.3551225425
 20
13.5435356764
 30
0.0
 10
17.3644656918
 20
13.5288757153
 30
0.0
 10
17.3831672774
 20
13.5101561087
 30
0.0
 10
17.4060899287
 20
13.4950415689
 30
0.0
 10
17.4422865976
 20
13.4798089202
 30
0.0
 10
17.4836309913
 20
13.473768473
 30
0.0
 10
17.5265312852
 20
13.4760495159
 30
0.0
 10
17.5716446543
 20
13.4842003218
 30
0.0
 10
17.6264895613
 20
13.5046898347
 30
0.0
 10
17.675319763
 20
13.5368567896
 30
0.0
 10
17.7082500888
 20
13.5683910842
 30
0.0
 10
17.7349672022
 20
13.6014602916
 30
0.0
 10
17.7495602151
 20
13.6297205042
 30
0.0
 10
17.7555439624
 20
13.6490839178
 30
0.0
  0
SPLINE
  5
36C
100
AcDbEntity
  8
02___PRT_ALL_AXES
100
AcDbSpline
 62
7
  6
BYLAYER
 70
0
 71
3
 72
13
 73
9
 74
0
 42
0.0000001
 43
0.0000001
 44
0.0000000001
 40
0.0
 40
0.0
 40
0.0
 40
0.0
 40
0.1031957305
 40
0.210660594
 40
0.3254562861
 40
0.4488597387
 40
0.717263436
 40
1.0
 40
1.0
 40
1.0
 40
1.0
 10
17.9066138222
 20
13.7556402638
 30
0.0
 10
17.9075864861
 20
13.7536544051
 30
0.0
 10
17.91022331
 20
13.7498894644
 30
0.0
 10
17.9157859477
 20
13.745541226
 30
0.0
 10
17.9226708744
 20
13.7426131917
 30
0.0
 10
17.9334315087
 20
13.7406954797
 30
0.0
 10
17.9481016183
 20
13.742452249
 30
0.0
 10
17.9590037731
 20
13.7475232801
 30
0.0
 10
17.9640288856
 20
13.7509075234
 30
0.0
  0
SPLINE
  5
36D
100
AcDbEntity
  8
0
100
AcDbSpline
 62
7
  6
BYLAYER
 70
0
 71
3
 72
11
 73
7
 74
0
 42
0.0000001
 43
0.0000001
 44
0.0000000001
 40
0.0
 40
0.0
 40
0.0
 40
0.0
 40
0.2926843773
 40
0.5579282929
 40
0.79371364
 40
1.0
 40
1.0
 40
1.0
 40
1.0
 10
18.0607049607
 20
12.6599568964
 30
0.0
 10
18.0635160641
 20
12.6690536303
 30
0.0
 10
18.0695017472
 20
12.6862119575
 30
0.0
 10
18.0801645326
 20
12.7097745752
 30
0.0
 10
18.0919315709
 20
12.7296068101
 30
0.0
 10
18.1009975002
 20
12.7408732483
 30
0.0
 10
18.1057093842
 20
12.7456513634
 30
0.0
  0
SPLINE
  5
36E
100
AcDbEntity
  8
0
100
AcDbSpline
 62
7
  6
BYLAYER
 70
0
 71
3
 72
11
 73
7
 74
0
 42
0.0000001
 43
0.0000001
 44
0.0000000001
 40
0.0
 40
0.0
 40
0.0
 40
0.0
 40
0.2821919215
 40
0.5381575754
 40
0.774417526
 40
1.0
 40
1.0
 40
1.0
 40
1.0
 10
18.1057093842
 20
12.7456513634
 30
0.0
 10
18.1087049706
 20
12.7486890564
 30
0.0
 10
18.1148071158
 20
12.7541240116
 30
0.0
 10
18.1247827661
 20
12.7603778365
 30
0.0
 10
18.1350285471
 20
12.7641989162
 30
0.0
 10
18.1420370893
 20
12.7650661097
 30
0.0
 10
18.1454475243
 20
12.7650650559
 30
0.0
  0
SPLINE
  5
36F
100
AcDbEntity
  8
02___PRT_ALL_AXES
100
AcDbSpline
 62
7
  6
BYLAYER
 70
0
 71
3
 72
11
 73
7
 74
0
 42
0.0000001
 43
0.0000001
 44
0.0000000001
 40
0.0
 40
0.0
 40
0.0
 40
0.0
 40
0.3156806228
 40
0.5821591739
 40
0.8046012074
 40
1.0
 40
1.0
 40
1.0
 40
1.0
 10
18.0411129558
 20
12.8763091909
 30
0.0
 10
18.0418842533
 20
12.8747374518
 30
0.0
 10
18.0434894773
 20
12.8719194183
 30
0.0
 10
18.0463773502
 20
12.8684747832
 30
0.0
 10
18.0495334218
 20
12.8662576358
 30
0.0
 10
18.0518686996
 20
12.8657161845
 30
0.0
 10
18.052952396
 20
12.8657173551
 30
0.0
  0
SPLINE
  5
370
100
AcDbEntity
  8
02___PRT_ALL_AXES
100
AcDbSpline
 62
7
  6
BYLAYER
 70
0
 71
3
 72
21
 73
17
 74
0
 42
0.0000001
 43
0.0000001
 44
0.0000000001
 40
0.0
 40
0.0
 40
0.0
 40
0.0
 40
0.0801866115
 40
0.1343893283
 40
0.1980477235
 40
0.2699655022
 40
0.348329046
 40
0.5151616757
 40
0.5987392803
 40
0.6790203582
 40
0.7536786352
 40
0.820721595
 40
0.8786760147
 40
0.9269360318
 40
0.9663150211
 40
1.0
 40
1.0
 40
1.0
 40
1.0
 10
17.9601940449
 20
12.6700686116
 30
0.0
 10
17.9573882943
 20
12.6692392739
 30
0.0
 10
17.9535831972
 20
12.665457658
 30
0.0
 10
17.9500882304
 20
12.6592098745
 30
0.0
 10
17.9475710179
 20
12.652711106
 30
0.0
 10
17.9455839447
 20
12.6451572222
 30
0.0
 10
17.9436572366
 20
12.6337339976
 30
0.0
 10
17.9430782889
 20
12.6216986923
 30
0.0
 10
17.9437853147
 20
12.6096460178
 30
0.0
 10
17.9449630345
 20
12.6010132178
 30
0.0
 10
17.9467388286
 20
12.5930992939
 30
0.0
 10
17.9490499127
 20
12.586174718
 30
0.0
 10
17.9518198805
 20
12.5804655307
 30
0.0
 10
17.9549724888
 20
12.5761435119
 30
0.0
 10
17.9584817127
 20
12.5733157782
 30
0.0
 10
17.9611700304
 20
12.5726094157
 30
0.0
 10
17.962399082
 20
12.57261327
 30
0.0
  0
SPLINE
  5
371
100
AcDbEntity
  8
02___PRT_ALL_AXES
100
AcDbSpline
 62
7
  6
BYLAYER
 70
0
 71
3
 72
18
 73
14
 74
0
 42
0.0000001
 43
0.0000001
 44
0.0000000001
 40
0.0
 40
0.0
 40
0.0
 40
0.0
 40
0.1393852211
 40
0.2927819298
 40
0.4502785
 40
0.60149873
 40
0.736802521
 40
0.7960744217
 40
0.8488586442
 40
0.894900179
 40
0.9345235345
 40
0.9688231352
 40
1.0
 40
1.0
 40
1.0
 40
1.0
 10
17.9641202994
 20
12.2801653485
 30
0.0
 10
17.9629317089
 20
12.2763190681
 30
0.0
 10
17.9611149642
 20
12.2680264313
 30
0.0
 10
17.9598654985
 20
12.2550584319
 30
0.0
 10
17.9600143904
 20
12.2416850114
 30
0.0
 10
17.9615512742
 20
12.2289288323
 30
0.0
 10
17.9639732572
 20
12.2191966339
 30
0.0
 10
17.9666014045
 20
12.2125424268
 30
0.0
 10
17.9687238879
 20
12.2084871824
 30
0.0
 10
17.9710520571
 20
12.2052167104
 30
0.0
 10
17.9735562138
 20
12.2027847234
 30
0.0
 10
17.9762231848
 20
12.2012518969
 30
0.0
 10
17.9781263502
 20
12.2008879453
 30
0.0
 10
17.9790268043
 20
12.2008867908
 30
0.0
  0
SPLINE
  5
372
100
AcDbEntity
  8
02___PRT_ALL_AXES
100
AcDbSpline
 62
7
  6
BYLAYER
 70
0
 71
3
 72
15
 73
11
 74
0
 42
0.0000001
 43
0.0000001
 44
0.0000000001
 40
0.0
 40
0.0
 40
0.0
 40
0.0
 40
0.1734563934
 40
0.3392725583
 40
0.4926163165
 40
0.6299720811
 40
0.7487638761
 40
0.8480145523
 40
0.9296139082
 40
1.0
 40
1.0
 40
1.0
 40
1.0
 10
18.0742604798
 20
12.0115914097
 30
0.0
 10
18.0743906972
 20
12.0086863581
 30
0.0
 10
18.0748462394
 20
12.0030108519
 30
0.0
 10
18.0761229006
 20
11.9948431231
 30
0.0
 10
18.07794625
 20
11.9873987437
 30
0.0
 10
18.0802541931
 20
11.9809179216
 30
0.0
 10
18.0829723396
 20
11.9755905877
 30
0.0
 10
18.0860404935
 20
11.9715665691
 30
0.0
 10
18.0894323528
 20
11.9689493842
 30
0.0
 10
18.091999129
 20
11.9682918652
 30
0.0
 10
18.0931791398
 20
11.9682931268
 30
0.0
  0
SPLINE
  5
373
100
AcDbEntity
  8
02___PRT_ALL_AXES
100
AcDbSpline
 62
7
  6
BYLAYER
 70
0
 71
3
 72
11
 73
7
 74
0
 42
0.0000001
 43
0.0000001
 44
0.0000000001
 40
0.0
 40
0.0
 40
0.0
 40
0.0
 40
0.3156806228
 40
0.5821591739
 40
0.8046012074
 40
1.0
 40
1.0
 40
1.0
 40
1.0
 10
18.2260959622
 20
12.021673766
 30
0.0
 10
18.2268672597
 20
12.0201020268
 30
0.0
 10
18.2284724837
 20
12.0172839934
 30
0.0
 10
18.2313603566
 20
12.0138393583
 30
0.0
 10
18.2345164282
 20
12.0116222108
 30
0.0
 10
18.236851706
 20
12.0110807596
 30
0.0
 10
18.2379354024
 20
12.0110819302
 30
0.0
  0
SPLINE
  5
374
100
AcDbEntity
  8
02___PRT_ALL_AXES
100
AcDbSpline
 62
7
  6
BYLAYER
 70
0
 71
3
 72
21
 73
17
 74
0
 42
0.0000001
 43
0.0000001
 44
0.0000000001
 40
0.0
 40
0.0
 40
0.0
 40
0.0
 40
0.0801866115
 40
0.1343893283
 40
0.1980477235
 40
0.2699655022
 40
0.348329046
 40
0.5151616757
 40
0.5987392803
 40
0.6790203582
 40
0.7536786352
 40
0.820721595
 40
0.8786760147
 40
0.9269360318
 40
0.9663150211
 40
1.0
 40
1.0
 40
1.0
 40
1.0
 10
18.3263294934
 20
12.4016427039
 30
0.0
 10
18.3235237428
 20
12.4008133663
 30
0.0
 10
18.3197186457
 20
12.3970317504
 30
0.0
 10
18.3162236788
 20
12.3907839668
 30
0.0
 10
18.3137064663
 20
12.3842851983
 30
0.0
 10
18.3117193932
 20
12.3767313145
 30
0.0
 10
18.309792685
 20
12.3653080899
 30
0.0
 10
18.3092137374
 20
12.3532727847
 30
0.0
 10
18.3099207632
 20
12.3412201102
 30
0.0
 10
18.3110984829
 20
12.3325873102
 30
0.0
 10
18.3128742771
 20
12.3246733863
 30
0.0
 10
18.3151853611
 20
12.3177488104
 30
0.0
 10
18.317955329
 20
12.3120396231
 30
0.0
 10
18.3211079373
 20
12.3077176043
 30
0.0
 10
18.3246171611
 20
12.3048898706
 30
0.0
 10
18.3273054788
 20
12.304183508
 30
0.0
 10
18.3285345304
 20
12.3041873623
 30
0.0
  0
SPLINE
  5
375
100
AcDbEntity
  8
02___PRT_ALL_AXES
100
AcDbSpline
 62
7
  6
BYLAYER
 70
0
 71
3
 72
18
 73
14
 74
0
 42
0.0000001
 43
0.0000001
 44
0.0000000001
 40
0.0
 40
0.0
 40
0.0
 40
0.0
 40
0.1393852211
 40
0.2927819298
 40
0.4502785
 40
0.60149873
 40
0.736802521
 40
0.7960744217
 40
0.8488586442
 40
0.894900179
 40
0.9345235345
 40
0.9688231352
 40
1.0
 40
1.0
 40
1.0
 40
1.0
 10
18.2969310099
 20
12.7551892143
 30
0.0
 10
18.2957424193
 20
12.7513429339
 30
0.0
 10
18.2939256746
 20
12.7430502971
 30
0.0
 10
18.2926762089
 20
12.7300822978
 30
0.0
 10
18.2928251009
 20
12.7167088773
 30
0.0
 10
18.2943619846
 20
12.7039526982
 30
0.0
 10
18.2967839677
 20
12.6942204998
 30
0.0
 10
18.2994121149
 20
12.6875662927
 30
0.0
 10
18.3015345983
 20
12.6835110483
 30
0.0
 10
18.3038627676
 20
12.6802405763
 30
0.0
 10
18.3063669242
 20
12.6778085893
 30
0.0
 10
18.3090338952
 20
12.6762757627
 30
0.0
 10
18.3109370606
 20
12.6759118112
 30
0.0
 10
18.3118375147
 20
12.6759106567
 30
0.0
  0
SPLINE
  5
376
100
AcDbEntity
  8
02___PRT_ALL_AXES
100
AcDbSpline
 62
7
  6
BYLAYER
 70
0
 71
3
 72
15
 73
11
 74
0
 42
0.0000001
 43
0.0000001
 44
0.0000000001
 40
0.0
 40
0.0
 40
0.0
 40
0.0
 40
0.1734563934
 40
0.3392725583
 40
0.4926163165
 40
0.6299720811
 40
0.7487638761
 40
0.8480145523
 40
0.9296139082
 40
1.0
 40
1.0
 40
1.0
 40
1.0
 10
18.1787904518
 20
12.9518025109
 30
0.0
 10
18.1789206692
 20
12.9488974593
 30
0.0
 10
18.1793762114
 20
12.9432219531
 30
0.0
 10
18.1806528725
 20
12.9350542243
 30
0.0
 10
18.182476222
 20
12.9276098449
 30
0.0
 10
18.1847841651
 20
12.9211290228
 30
0.0
 10
18.1875023116
 20
12.9158016889
 30
0.0
 10
18.1905704655
 20
12.9117776703
 30
0.0
 10
18.1939623248
 20
12.9091604854
 30
0.0
 10
18.196529101
 20
12.9085029664
 30
0.0
 10
18.1977091118
 20
12.908504228
 30
0.0
  0
SPLINE
  5
377
100
AcDbEntity
  8
02___PRT_ALL_AXES
100
AcDbSpline
 62
7
  6
BYLAYER
 70
0
 71
3
 72
17
 73
13
 74
0
 42
0.0000001
 43
0.0000001
 44
0.0000000001
 40
0.0
 40
0.0
 40
0.0
 40
0.0
 40
0.050785639
 40
0.1027115068
 40
0.2130418717
 40
0.3354275365
 40
0.4686469943
 40
0.6079206891
 40
0.67794138
 40
0.747024586
 40
0.879108976
 40
1.0
 40
1.0
 40
1.0
 40
1.0
 10
17.7535098328
 20
13.9322624494
 30
0.0
 10
17.7542140557
 20
13.9308299019
 30
0.0
 10
17.7559674365
 20
13.928082272
 30
0.0
 10
17.7607298656
 20
13.923311144
 30
0.0
 10
17.7688913489
 20
13.9191149723
 30
0.0
 10
17.7804330969
 20
13.9174491308
 30
0.0
 10
17.792876349
 20
13.9189869176
 30
0.0
 10
17.8030558334
 20
13.9227928045
 30
0.0
 10
17.8106318036
 20
13.9272037173
 30
0.0
 10
17.8174646699
 20
13.9323271678
 30
0.0
 10
17.8244512061
 20
13.939797428
 30
0.0
 10
17.8281672723
 20
13.9469950298
 30
0.0
 10
17.8292891598
 20
13.9506254591
 30
0.0
  0
SPLINE
  5
378
100
AcDbEntity
  8
02___PRT_ALL_AXES
100
AcDbSpline
 62
7
  6
BYLAYER
 70
0
 71
3
 72
11
 73
7
 74
0
 42
0.0000001
 43
0.0000001
 44
0.0000000001
 40
0.0
 40
0.0
 40
0.0
 40
0.0
 40
0.2268632804
 40
0.4650145788
 40
0.722100556
 40
1.0
 40
1.0
 40
1.0
 40
1.0
 10
17.197492077
 20
13.7556354539
 30
0.0
 10
17.1985704795
 20
13.7534358999
 30
0.0
 10
17.2015878965
 20
13.7492835771
 30
0.0
 10
17.2080427217
 20
13.744706787
 30
0.0
 10
17.2160102025
 20
13.7419234996
 30
0.0
 10
17.2218124307
 20
13.7413478926
 30
0.0
 10
17.224813216
 20
13.7413478926
 30
0.0
  0
SPLINE
  5
379
100
AcDbEntity
  8
02___PRT_ALL_AXES
100
AcDbSpline
 62
7
  6
BYLAYER
 70
0
 71
3
 72
13
 73
9
 74
0
 42
0.0000001
 43
0.0000001
 44
0.0000000001
 40
0.0
 40
0.0
 40
0.0
 40
0.0
 40
0.1031957305
 40
0.210660594
 40
0.3254562861
 40
0.4488597387
 40
0.717263436
 40
1.0
 40
1.0
 40
1.0
 40
1.0
 10
17.1202936788
 20
13.5058350717
 30
0.0
 10
17.1212663427
 20
13.5038492131
 30
0.0
 10
17.1239031666
 20
13.5000842723
 30
0.0
 10
17.1294658043
 20
13.495736034
 30
0.0
 10
17.136350731
 20
13.4928079996
 30
0.0
 10
17.1471113653
 20
13.4908902876
 30
0.0
 10
17.1617814749
 20
13.4926470569
 30
0.0
 10
17.1726836297
 20
13.4977180881
 30
0.0
 10
17.1777087422
 20
13.5011023314
 30
0.0
  0
SPLINE
  5
37A
100
AcDbEntity
  8
02___PRT_ALL_AXES
100
AcDbSpline
 62
7
  6
BYLAYER
 70
0
 71
3
 72
17
 73
13
 74
0
 42
0.0000001
 43
0.0000001
 44
0.0000000001
 40
0.0
 40
0.0
 40
0.0
 40
0.0
 40
0.050785639
 40
0.1027115068
 40
0.2130418717
 40
0.3354275365
 40
0.4686469943
 40
0.6079206891
 40
0.67794138
 40
0.747024586
 40
0.879108976
 40
1.0
 40
1.0
 40
1.0
 40
1.0
 10
17.2734140792
 20
13.3291793669
 30
0.0
 10
17.2741183021
 20
13.3277468194
 30
0.0
 10
17.2758716829
 20
13.3249991894
 30
0.0
 10
17.280634112
 20
13.3202280614
 30
0.0
 10
17.2887955954
 20
13.3160318898
 30
0.0
 10
17.3003373433
 20
13.3143660483
 30
0.0
 10
17.3127805954
 20
13.315903835
 30
0.0
 10
17.3229600798
 20
13.3197097219
 30
0.0
 10
17.3305360501
 20
13.3241206348
 30
0.0
 10
17.3373689163
 20
13.3292440853
 30
0.0
 10
17.3443554526
 20
13.3367143455
 30
0.0
 10
17.3480715187
 20
13.3439119472
 30
0.0
 10
17.3491934062
 20
13.3475423765
 30
0.0
  0
SPLINE
  5
37B
100
AcDbEntity
  8
02___PRT_ALL_AXES
100
AcDbSpline
 62
7
  6
BYLAYER
 70
0
 71
3
 72
11
 73
7
 74
0
 42
0.0000001
 43
0.0000001
 44
0.0000000001
 40
0.0
 40
0.0
 40
0.0
 40
0.0
 40
0.2268632804
 40
0.4650145788
 40
0.722100556
 40
1.0
 40
1.0
 40
1.0
 40
1.0
 10
17.8294209345
 20
13.5058302618
 30
0.0
 10
17.8304993371
 20
13.5036307079
 30
0.0
 10
17.8335167541
 20
13.4994783851
 30
0.0
 10
17.8399715792
 20
13.4949015949
 30
0.0
 10
17.8479390601
 20
13.4921183076
 30
0.0
 10
17.8537412883
 20
13.4915427005
 30
0.0
 10
17.8567420735
 20
13.4915427005
 30
0.0
  0
SPLINE
  5
37C
100
AcDbEntity
  8
0
100
AcDbSpline
 62
7
  6
BYLAYER
 70
0
 71
3
 72
18
 73
14
 74
0
 42
0.0000001
 43
0.0000001
 44
0.0000000001
 40
0.0
 40
0.0
 40
0.0
 40
0.0
 40
0.151148675
 40
0.2996847234
 40
0.4428216799
 40
0.5779445429
 40
0.7027450842
 40
0.7606846588
 40
0.8153846843
 40
0.8667115972
 40
0.9145829352
 40
0.9589886187
 40
1.0
 40
1.0
 40
1.0
 40
1.0
 10
17.1358281439
 20
12.4761477845
 30
0.0
 10
17.1356114134
 20
12.5150023438
 30
0.0
 10
17.1374206193
 20
12.5920718437
 30
0.0
 10
17.1467984628
 20
12.7055846084
 30
0.0
 10
17.1626163655
 20
12.8142331349
 30
0.0
 10
17.1845142968
 20
12.9155920453
 30
0.0
 10
17.2079586982
 20
12.993986687
 30
0.0
 10
17.2296160636
 20
13.0510777816
 30
0.0
 10
17.2466310386
 20
13.0896654025
 30
0.0
 10
17.2647204071
 20
13.1248787467
 30
0.0
 10
17.2837933123
 20
13.1565246113
 30
0.0
 10
17.3037407555
 20
13.1844290699
 30
0.0
 10
17.318118795
 20
13.2010827259
 30
0.0
 10
17.3254437164
 20
13.2086651059
 30
0.0
  0
SPLINE
  5
37D
100
AcDbEntity
  8
0
100
AcDbSpline
 62
7
  6
BYLAYER
 70
0
 71
3
 72
14
 73
10
 74
0
 42
0.0000001
 43
0.0000001
 44
0.0000000001
 40
0.0
 40
0.0
 40
0.0
 40
0.0
 40
0.1128400439
 40
0.227185611
 40
0.3443963519
 40
0.4655775909
 40
0.5915080615
 40
0.7226024568
 40
1.0
 40
1.0
 40
1.0
 40
1.0
 10
17.1359008689
 20
13.3597259553
 30
0.0
 10
17.1423555113
 20
13.3465767988
 30
0.0
 10
17.1576283333
 20
13.3211551353
 30
0.0
 10
17.1868417953
 20
13.2870604766
 30
0.0
 10
17.2219551973
 20
13.2573775045
 30
0.0
 10
17.2624012946
 20
13.232548842
 30
0.0
 10
17.3075688193
 20
13.2129129868
 30
0.0
 10
17.3743631773
 20
13.1936505166
 30
0.0
 10
17.4277146695
 20
13.1883526886
 30
0.0
 10
17.4637241207
 20
13.1883526886
 30
0.0
  0
SPLINE
  5
37E
100
AcDbEntity
  8
0
100
AcDbSpline
 62
7
  6
BYLAYER
 70
0
 71
3
 72
17
 73
13
 74
0
 42
0.0000001
 43
0.0000001
 44
0.0000000001
 40
0.0
 40
0.0
 40
0.0
 40
0.0
 40
0.053074348
 40
0.1065214063
 40
0.1606954812
 40
0.2159140492
 40
0.3303514418
 40
0.4514616649
 40
0.5797219902
 40
0.7147294364
 40
0.8553687567
 40
1.0
 40
1.0
 40
1.0
 40
1.0
 10
18.0336136958
 20
13.8003063315
 30
0.0
 10
18.0382719966
 20
13.7908166151
 30
0.0
 10
18.0464629578
 20
13.7711771172
 30
0.0
 10
18.0551440659
 20
13.7402937085
 30
0.0
 10
18.0601666904
 20
13.7081725584
 30
0.0
 10
18.0619771136
 20
13.6635434482
 30
0.0
 10
18.05460926
 20
13.6056251377
 30
0.0
 10
18.0313958986
 20
13.5365561785
 30
0.0
 10
17.9945760244
 20
13.4690293732
 30
0.0
 10
17.9453290153
 20
13.405034346
 30
0.0
 10
17.8851853322
 20
13.3464453101
 30
0.0
 10
17.8394289511
 20
13.3124383057
 30
0.0
 10
17.8152659294
 20
13.2967527361
 30
0.0
  0
SPLINE
  5
37F
100
AcDbEntity
  8
0
100
AcDbSpline
 62
7
  6
BYLAYER
 70
0
 71
3
 72
11
 73
7
 74
0
 42
0.0000001
 43
0.0000001
 44
0.0000000001
 40
0.0
 40
0.0
 40
0.0
 40
0.0
 40
0.2551003464
 40
0.5096111832
 40
0.7591862435
 40
1.0
 40
1.0
 40
1.0
 40
1.0
 10
17.8152659294
 20
13.2967527361
 30
0.0
 10
17.7886951646
 20
13.2795041657
 30
0.0
 10
17.7331419721
 20
13.2487068887
 30
0.0
 10
17.6449607079
 20
13.2145543195
 30
0.0
 10
17.5546059881
 20
13.1933883166
 30
0.0
 10
17.4936283754
 20
13.1883526886
 30
0.0
 10
17.4637241207
 20
13.1883526886
 30
0.0
  0
SPLINE
  5
380
100
AcDbEntity
  8
0
100
AcDbSpline
 62
7
  6
BYLAYER
 70
0
 71
3
 72
16
 73
12
 74
0
 42
0.0000001
 43
0.0000001
 44
0.0000000001
 40
0.0
 40
0.0
 40
0.0
 40
0.0
 40
0.1727277788
 40
0.3318329829
 40
0.476263825
 40
0.60572772
 40
0.720621193
 40
0.8224009997
 40
0.9139510908
 40
0.9573472248
 40
1.0
 40
1.0
 40
1.0
 40
1.0
 10
17.8736309984
 20
12.832626332
 30
0.0
 10
17.8784911982
 20
12.8483539442
 30
0.0
 10
17.8887757229
 20
12.8782907764
 30
0.0
 10
17.9067122274
 20
12.9200384804
 30
0.0
 10
17.9263608677
 20
12.956402796
 30
0.0
 10
17.9474922345
 20
12.9869502182
 30
0.0
 10
17.9699115029
 20
13.0113317449
 30
0.0
 10
17.9934321075
 20
13.0292375295
 30
0.0
 10
18.0142433022
 20
13.0386149725
 30
0.0
 10
18.0308251033
 20
13.0422450593
 30
0.0
 10
18.0390383503
 20
13.0428423071
 30
0.0
 10
18.0431032813
 20
13.0428419741
 30
0.0
  0
SPLINE
  5
381
100
AcDbEntity
  8
0
100
AcDbSpline
 62
7
  6
BYLAYER
 70
0
 71
3
 72
27
 73
23
 74
0
 42
0.0000001
 43
0.0000001
 44
0.0000000001
 40
0.0
 40
0.0
 40
0.0
 40
0.0
 40
0.0673799367
 40
0.1393925625
 40
0.2149169197
 40
0.2927566437
 40
0.3716262347
 40
0.4502182411
 40
0.5272305485
 40
0.6014076053
 40
0.6715801875
 40
0.7367097767
 40
0.7959420652
 40
0.8486788797
 40
0.8725360427
 40
0.8947234908
 40
0.9152965965
 40
0.9343652929
 40
0.9520959698
 40
0.9687275075
 40
0.9845705757
 40
1.0
 40
1.0
 40
1.0
 40
1.0
 10
17.8736309984
 20
12.832626332
 30
0.0
 10
17.8670968654
 20
12.8114818697
 30
0.0
 10
17.8554052531
 20
12.7671631654
 30
0.0
 10
17.8421291937
 20
12.6977869783
 30
0.0
 10
17.8327174561
 20
12.6243177677
 30
0.0
 10
17.8273539624
 20
12.548189872
 30
0.0
 10
17.8261485702
 20
12.4708761026
 30
0.0
 10
17.8291238411
 20
12.3938818962
 30
0.0
 10
17.8362212939
 20
12.3187034901
 30
0.0
 10
17.8472992454
 20
12.2467995886
 30
0.0
 10
17.8621370022
 20
12.1795610408
 30
0.0
 10
17.8804421505
 20
12.1182724604
 30
0.0
 10
17.901857984
 20
12.0641054534
 30
0.0
 10
17.9226106009
 20
12.0244710873
 30
0.0
 10
17.9406443406
 20
11.9974658302
 30
0.0
 10
17.9542247437
 20
11.9802749623
 30
0.0
 10
17.9682583576
 20
11.9655497771
 30
0.0
 10
17.9826833968
 20
11.9533587172
 30
0.0
 10
17.9974472917
 20
11.9437735165
 30
0.0
 10
18.0124894923
 20
11.9368569759
 30
0.0
 10
18.0277319918
 20
11.9326707595
 30
0.0
 10
18.0380263044
 20
11.9317333626
 30
0.0
 10
18.0430941229
 20
11.9317329474
 30
0.0
  0
SPLINE
  5
382
100
AcDbEntity
  8
02___PRT_ALL_AXES
100
AcDbSpline
 62
7
  6
BYLAYER
 70
0
 71
3
 72
17
 73
13
 74
0
 42
0.0000001
 43
0.0000001
 44
0.0000000001
 40
0.0
 40
0.0
 40
0.0
 40
0.0
 40
0.0328478074
 40
0.0676279268
 40
0.1059114104
 40
0.148752321
 40
0.2498936423
 40
0.3721854089
 40
0.5131913382
 40
0.6685235917
 40
0.8329156281
 40
1.0
 40
1.0
 40
1.0
 40
1.0
 10
18.1976984853
 20
13.0062817947
 30
0.0
 10
18.1970251889
 20
13.0062810748
 30
0.0
 10
18.1956330415
 20
13.0060849326
 30
0.0
 10
18.1936142452
 20
13.0052347255
 30
0.0
 10
18.1916635531
 20
13.0038517718
 30
0.0
 10
18.1890280232
 20
13.0011834728
 30
0.0
 10
18.1860706494
 20
12.9965331625
 30
0.0
 10
18.1832036867
 20
12.9896129879
 30
0.0
 10
18.180943742
 20
12.9813147947
 30
0.0
 10
18.1793890214
 20
12.9719865522
 30
0.0
 10
18.1786138716
 20
12.9620271125
 30
0.0
 10
18.1786370907
 20
12.9552238812
 30
0.0
 10
18.1787904518
 20
12.9518025109
 30
0.0
  0
SPLINE
  5
383
100
AcDbEntity
  8
02___PRT_ALL_AXES
100
AcDbSpline
 62
7
  6
BYLAYER
 70
0
 71
3
 72
13
 73
9
 74
0
 42
0.0000001
 43
0.0000001
 44
0.0000000001
 40
0.0
 40
0.0
 40
0.0
 40
0.0
 40
0.0859159704
 40
0.1775515467
 40
0.2793768109
 40
0.3943308344
 40
0.6682047645
 40
1.0
 40
1.0
 40
1.0
 40
1.0
 10
18.3118508209
 20
12.7736881306
 30
0.0
 10
18.3111307467
 20
12.7736890538
 30
0.0
 10
18.309634932
 20
12.7734655195
 30
0.0
 10
18.3074797285
 20
12.7724923424
 30
0.0
 10
18.3054064236
 20
12.7709194261
 30
0.0
 10
18.3026140768
 20
12.7678781735
 30
0.0
 10
18.299536416
 20
12.7626144197
 30
0.0
 10
18.2977520415
 20
12.7578460735
 30
0.0
 10
18.2969310099
 20
12.7551892143
 30
0.0
  0
SPLINE
  5
384
100
AcDbEntity
  8
02___PRT_ALL_AXES
100
AcDbSpline
 62
7
  6
BYLAYER
 70
0
 71
3
 72
19
 73
15
 74
0
 42
0.0000001
 43
0.0000001
 44
0.0000000001
 40
0.0
 40
0.0
 40
0.0
 40
0.0
 40
0.0313852112
 40
0.0665255793
 40
0.1078722031
 40
0.1565166979
 40
0.2125481958
 40
0.2754804481
 40
0.4179574941
 40
0.5738524124
 40
0.7308416845
 40
0.8764220623
 40
0.9415674586
 40
1.0
 40
1.0
 40
1.0
 40
1.0
 10
18.2379252291
 20
12.1088575663
 30
0.0
 10
18.2369300506
 20
12.1088564913
 30
0.0
 10
18.234805356
 20
12.1084065208
 30
0.0
 10
18.2318836021
 20
12.1065314942
 30
0.0
 10
18.2291714791
 20
12.1035948518
 30
0.0
 10
18.2266908064
 20
12.0996636632
 30
0.0
 10
18.2244721145
 20
12.0948210793
 30
0.0
 10
18.2218245136
 20
12.0869531486
 30
0.0
 10
18.2195982994
 20
12.0756672394
 30
0.0
 10
18.218608457
 20
12.061230524
 30
0.0
 10
18.2193120218
 20
12.0466790066
 30
0.0
 10
18.2213062
 20
12.0351458115
 30
0.0
 10
18.2237844342
 20
12.0269695419
 30
0.0
 10
18.2252797201
 20
12.0233370925
 30
0.0
 10
18.2260959622
 20
12.021673766
 30
0.0
  0
SPLINE
  5
385
100
AcDbEntity
  8
02___PRT_ALL_AXES
100
AcDbSpline
 62
7
  6
BYLAYER
 70
0
 71
3
 72
17
 73
13
 74
0
 42
0.0000001
 43
0.0000001
 44
0.0000000001
 40
0.0
 40
0.0
 40
0.0
 40
0.0
 40
0.0328478074
 40
0.0676279268
 40
0.1059114104
 40
0.148752321
 40
0.2498936423
 40
0.3721854089
 40
0.5131913382
 40
0.6685235917
 40
0.8329156281
 40
1.0
 40
1.0
 40
1.0
 40
1.0
 10
18.0931685133
 20
12.0660706935
 30
0.0
 10
18.092495217
 20
12.0660699736
 30
0.0
 10
18.0911030695
 20
12.0658738314
 30
0.0
 10
18.0890842733
 20
12.0650236243
 30
0.0
 10
18.0871335811
 20
12.0636406706
 30
0.0
 10
18.0844980512
 20
12.0609723716
 30
0.0
 10
18.0815406774
 20
12.0563220613
 30
0.0
 10
18.0786737147
 20
12.0494018867
 30
0.0
 10
18.0764137701
 20
12.0411036935
 30
0.0
 10
18.0748590494
 20
12.031775451
 30
0.0
 10
18.0740838996
 20
12.0218160113
 30
0.0
 10
18.0741071187
 20
12.01501278
 30
0.0
 10
18.0742604798
 20
12.0115914097
 30
0.0
  0
SPLINE
  5
386
100
AcDbEntity
  8
02___PRT_ALL_AXES
100
AcDbSpline
 62
7
  6
BYLAYER
 70
0
 71
3
 72
13
 73
9
 74
0
 42
0.0000001
 43
0.0000001
 44
0.0000000001
 40
0.0
 40
0.0
 40
0.0
 40
0.0
 40
0.0859159704
 40
0.1775515467
 40
0.2793768109
 40
0.3943308344
 40
0.6682047645
 40
1.0
 40
1.0
 40
1.0
 40
1.0
 10
17.9790401104
 20
12.2986642648
 30
0.0
 10
17.9783200363
 20
12.2986651879
 30
0.0
 10
17.9768242216
 20
12.2984416536
 30
0.0
 10
17.974669018
 20
12.2974684765
 30
0.0
 10
17.9725957131
 20
12.2958955602
 30
0.0
 10
17.9698033663
 20
12.2928543076
 30
0.0
 10
17.9667257055
 20
12.2875905538
 30
0.0
 10
17.964941331
 20
12.2828222076
 30
0.0
 10
17.9641202994
 20
12.2801653485
 30
0.0
  0
SPLINE
  5
387
100
AcDbEntity
  8
02___PRT_ALL_AXES
100
AcDbSpline
 62
7
  6
BYLAYER
 70
0
 71
3
 72
19
 73
15
 74
0
 42
0.0000001
 43
0.0000001
 44
0.0000000001
 40
0.0
 40
0.0
 40
0.0
 40
0.0
 40
0.0313852112
 40
0.0665255793
 40
0.1078722031
 40
0.1565166979
 40
0.2125481958
 40
0.2754804481
 40
0.4179574941
 40
0.5738524124
 40
0.7308416845
 40
0.8764220623
 40
0.9415674586
 40
1.0
 40
1.0
 40
1.0
 40
1.0
 10
18.0529422227
 20
12.9634929913
 30
0.0
 10
18.0519470442
 20
12.9634919162
 30
0.0
 10
18.0498223496
 20
12.9630419457
 30
0.0
 10
18.0469005957
 20
12.9611669191
 30
0.0
 10
18.0441884727
 20
12.9582302767
 30
0.0
 10
18.0417078
 20
12.9542990882
 30
0.0
 10
18.0394891081
 20
12.9494565043
 30
0.0
 10
18.0368415072
 20
12.9415885735
 30
0.0
 10
18.034615293
 20
12.9303026643
 30
0.0
 10
18.0336254506
 20
12.915865949
 30
0.0
 10
18.0343290154
 20
12.9013144316
 30
0.0
 10
18.0363231936
 20
12.8897812365
 30
0.0
 10
18.0388014278
 20
12.8816049668
 30
0.0
 10
18.0402967137
 20
12.8779725174
 30
0.0
 10
18.0411129558
 20
12.8763091909
 30
0.0
  0
SPLINE
  5
388
100
AcDbEntity
  8
0
100
AcDbSpline
 62
7
  6
BYLAYER
 70
0
 71
3
 72
27
 73
23
 74
0
 42
0.0000001
 43
0.0000001
 44
0.0000000001
 40
0.0
 40
0.0
 40
0.0
 40
0.0
 40
0.0154294243
 40
0.0312724925
 40
0.0479040302
 40
0.0656347071
 40
0.0847034035
 40
0.1052765092
 40
0.1274639573
 40
0.1513211203
 40
0.2040579348
 40
0.2632902233
 40
0.3284198125
 40
0.3985923947
 40
0.4727694515
 40
0.5497817589
 40
0.6283737653
 40
0.7072433563
 40
0.7850830803
 40
0.8606074375
 40
0.9326200633
 40
1.0
 40
1.0
 40
1.0
 40
1.0
 10
18.1454433918
 20
13.0428419741
 30
0.0
 10
18.1505112103
 20
13.0428415589
 30
0.0
 10
18.1608055229
 20
13.0419041619
 30
0.0
 10
18.1760480224
 20
13.0377179456
 30
0.0
 10
18.191090223
 20
13.030801405
 30
0.0
 10
18.2058541178
 20
13.0212162043
 30
0.0
 10
18.2202791571
 20
13.0090251443
 30
0.0
 10
18.2343127709
 20
12.9942999592
 30
0.0
 10
18.2478931741
 20
12.9771090912
 30
0.0
 10
18.2659269138
 20
12.9501038341
 30
0.0
 10
18.2866795307
 20
12.9104694681
 30
0.0
 10
18.3080953642
 20
12.8563024611
 30
0.0
 10
18.3264005125
 20
12.7950138806
 30
0.0
 10
18.3412382693
 20
12.7277753328
 30
0.0
 10
18.3523162208
 20
12.6558714314
 30
0.0
 10
18.3594136736
 20
12.5806930253
 30
0.0
 10
18.3623889445
 20
12.5036988188
 30
0.0
 10
18.3611835523
 20
12.4263850495
 30
0.0
 10
18.3558200585
 20
12.3502571537
 30
0.0
 10
18.346408321
 20
12.2767879431
 30
0.0
 10
18.3331322616
 20
12.2074117561
 30
0.0
 10
18.3214406493
 20
12.1630930517
 30
0.0
 10
18.3149065163
 20
12.1419485895
 30
0.0
  0
SPLINE
  5
389
100
AcDbEntity
  8
0
100
AcDbSpline
 62
7
  6
BYLAYER
 70
0
 71
3
 72
16
 73
12
 74
0
 42
0.0000001
 43
0.0000001
 44
0.0000000001
 40
0.0
 40
0.0
 40
0.0
 40
0.0
 40
0.0426527752
 40
0.0860489092
 40
0.1775990003
 40
0.279378807
 40
0.39427228
 40
0.523736175
 40
0.6681670171
 40
0.8272722212
 40
1.0
 40
1.0
 40
1.0
 40
1.0
 10
18.1454342334
 20
11.9317329474
 30
0.0
 10
18.1494991644
 20
11.9317326143
 30
0.0
 10
18.1577124114
 20
11.9323298622
 30
0.0
 10
18.1742942125
 20
11.9359599489
 30
0.0
 10
18.1951054072
 20
11.945337392
 30
0.0
 10
18.2186260117
 20
11.9632431766
 30
0.0
 10
18.2410452801
 20
11.9876247032
 30
0.0
 10
18.262176647
 20
12.0181721254
 30
0.0
 10
18.2818252873
 20
12.054536441
 30
0.0
 10
18.2997617918
 20
12.096284145
 30
0.0
 10
18.3100463165
 20
12.1262209773
 30
0.0
 10
18.3149065163
 20
12.1419485895
 30
0.0
  0
SPLINE
  5
38A
100
AcDbEntity
  8
0
100
AcDbSpline
 62
7
  6
BYLAYER
 70
0
 71
3
 72
13
 73
9
 74
0
 42
0.0000001
 43
0.0000001
 44
0.0000000001
 40
0.0
 40
0.0
 40
0.0
 40
0.0
 40
0.2122188931
 40
0.3266457718
 40
0.4474389923
 40
0.5750232149
 40
0.7096499646
 40
1.0
 40
1.0
 40
1.0
 40
1.0
 10
17.9243503252
 20
11.7044759087
 30
0.0
 10
17.940662824
 20
11.7154656653
 30
0.0
 10
17.963600156
 20
11.7357133456
 30
0.0
 10
17.9905765923
 20
11.767228984
 30
0.0
 10
18.0102985012
 20
11.7945149456
 30
0.0
 10
18.0289783964
 20
11.8247301789
 30
0.0
 10
18.0531220405
 20
11.869923971
 30
0.0
 10
18.068684556
 20
11.9062052561
 30
0.0
 10
18.0782340768
 20
11.9313643781
 30
0.0
  0
SPLINE
  5
38B
100
AcDbEntity
  8
0
100
AcDbSpline
 62
7
  6
BYLAYER
 70
0
 71
3
 72
24
 73
20
 74
0
 42
0.0000001
 43
0.0000001
 44
0.0000000001
 40
0.0
 40
0.0
 40
0.0
 40
0.0
 40
0.0154323948
 40
0.0312783084
 40
0.0655589438
 40
0.1051518584
 40
0.1511690561
 40
0.2039161789
 40
0.2631601593
 40
0.3283028828
 40
0.3984889488
 40
0.4726792946
 40
0.5497049292
 40
0.6283104566
 40
0.707193763
 40
0.7850469311
 40
0.8605824112
 40
0.9326108318
 40
1.0
 40
1.0
 40
1.0
 40
1.0
 10
18.1454301009
 20
12.2095098656
 30
0.0
 10
18.1428962062
 20
12.2095106486
 30
0.0
 10
18.1377492563
 20
12.2099818018
 30
0.0
 10
18.1273219089
 20
12.2128422224
 30
0.0
 10
18.1143309508
 20
12.2202741431
 30
0.0
 10
18.1001124962
 20
12.2340834822
 30
0.0
 10
18.0868805296
 20
12.2526643709
 30
0.0
 10
18.0748158725
 20
12.2757004154
 30
0.0
 10
18.0641074056
 20
12.3027883399
 30
0.0
 10
18.0549560403
 20
12.3334315522
 30
0.0
 10
18.0475378872
 20
12.3670511176
 30
0.0
 10
18.0419995417
 20
12.403002412
 30
0.0
 10
18.0384510973
 20
12.4405907754
 30
0.0
 10
18.0369635293
 20
12.4790869001
 30
0.0
 10
18.0375665287
 20
12.5177428105
 30
0.0
 10
18.0402486483
 20
12.5558054453
 30
0.0
 10
18.0449543152
 20
12.5925393647
 30
0.0
 10
18.0515926065
 20
12.6272263266
 30
0.0
 10
18.0574380942
 20
12.6493853125
 30
0.0
 10
18.0607049607
 20
12.6599568964
 30
0.0
  0
SPLINE
  5
38C
100
AcDbEntity
  8
0
100
AcDbSpline
 62
7
  6
BYLAYER
 70
0
 71
3
 72
11
 73
7
 74
0
 42
0.0000001
 43
0.0000001
 44
0.0000000001
 40
0.0
 40
0.0
 40
0.0
 40
0.0
 40
0.2204325285
 40
0.4637320733
 40
0.7253878526
 40
1.0
 40
1.0
 40
1.0
 40
1.0
 10
17.2205481947
 20
11.8601311583
 30
0.0
 10
17.2091570141
 20
11.8869137709
 30
0.0
 10
17.1886120902
 20
11.9447323391
 30
0.0
 10
17.1649021513
 20
12.0376290465
 30
0.0
 10
17.1472208689
 20
12.1391197244
 30
0.0
 10
17.139894879
 20
12.2096053437
 30
0.0
 10
17.137287883
 20
12.2457694309
 30
0.0
  0
SPLINE
  5
38D
100
AcDbEntity
  8
0
100
AcDbSpline
 62
7
  6
BYLAYER
 70
0
 71
3
 72
23
 73
19
 74
0
 42
0.0000001
 43
0.0000001
 44
0.0000000001
 40
0.0
 40
0.0
 40
0.0
 40
0.0
 40
0.0637580559
 40
0.1258285225
 40
0.1869367628
 40
0.2478903669
 40
0.3094222479
 40
0.3719834642
 40
0.4355991203
 40
0.4999220411
 40
0.5643939725
 40
0.628409992
 40
0.6914995354
 40
0.7534977924
 40
0.8146665553
 40
0.8755983013
 40
0.9371203353
 40
1.0
 40
1.0
 40
1.0
 40
1.0
 10
18.0435212793
 20
11.8519781758
 30
0.0
 10
18.0342360935
 20
11.8311579747
 30
0.0
 10
18.014408345
 20
11.790710027
 30
0.0
 10
17.9798246526
 20
11.7334031002
 30
0.0
 10
17.9402035063
 20
11.6806563183
 30
0.0
 10
17.8946487734
 20
11.6331386339
 30
0.0
 10
17.8424817577
 20
11.5920437528
 30
0.0
 10
17.7835612707
 20
11.559246023
 30
0.0
 10
17.7187928237
 20
11.5369547874
 30
0.0
 10
17.6502756352
 20
11.5270918304
 30
0.0
 10
17.5809902546
 20
11.5306242238
 30
0.0
 10
17.5141060077
 20
11.5471973477
 30
0.0
 10
17.4522126684
 20
11.5752773415
 30
0.0
 10
17.3967808103
 20
11.612690062
 30
0.0
 10
17.3481406086
 20
11.657354828
 30
0.0
 10
17.3058030579
 20
11.707737415
 30
0.0
 10
17.2689179603
 20
11.7629206689
 30
0.0
 10
17.2477463169
 20
11.802111738
 30
0.0
 10
17.2378417012
 20
11.8222952225
 30
0.0
  0
SPLINE
  5
38E
100
AcDbEntity
  8
0
100
AcDbSpline
 62
7
  6
BYLAYER
 70
0
 71
3
 72
10
 73
6
 74
0
 42
0.0000001
 43
0.0000001
 44
0.0000000001
 40
0.0
 40
0.0
 40
0.0
 40
0.0
 40
0.2364041639
 40
0.4821039878
 40
1.0
 40
1.0
 40
1.0
 40
1.0
 10
17.961711129
 20
13.3793468366
 30
0.0
 10
17.9739221011
 20
13.3544634917
 30
0.0
 10
17.997275905
 20
13.3029459139
 30
0.0
 10
18.0399250507
 20
13.1936897084
 30
0.0
 10
18.0663275863
 20
13.1079754721
 30
0.0
 10
18.0819527089
 20
13.0492977256
 30
0.0
  0
SPLINE
  5
38F
100
AcDbEntity
  8
0
100
AcDbSpline
 62
7
  6
BYLAYER
 70
0
 71
3
 72
46
 73
42
 74
0
 42
0.0000001
 43
0.0000001
 44
0.0000000001
 40
0.0
 40
0.0
 40
0.0
 40
0.0
 40
0.0658843087
 40
0.1324174631
 40
0.1987811263
 40
0.2641361812
 40
0.2961635676
 40
0.3276080483
 40
0.358353676
 40
0.3882797413
 40
0.4172584721
 40
0.44515166
 40
0.4586454222
 40
0.4718104136
 40
0.4846269342
 40
0.4970788334
 40
0.5091620634
 40
0.5209125995
 40
0.5324956592
 40
0.5383946086
 40
0.5445316583
 40
0.5511067807
 40
0.5582865161
 40
0.566045282
 40
0.5741895584
 40
0.5824927568
 40
0.5908209445
 40
0.6073573664
 40
0.6237003902
 40
0.6398924614
 40
0.6559900234
 40
0.6720388731
 40
0.7041113075
 40
0.7362908692
 40
0.7686599493
 40
0.8012487737
 40
0.8340545719
 40
0.867052906
 40
0.9002027757
 40
0.9334528403
 40
1.0
 40
1.0
 40
1.0
 40
1.0
 10
17.5174899838
 20
12.2786181312
 30
0.0
 10
17.5123531543
 20
12.3076532883
 30
0.0
 10
17.5028917897
 20
12.3661645498
 30
0.0
 10
17.4908709625
 20
12.4543186795
 30
0.0
 10
17.4806619784
 20
12.5424604507
 30
0.0
 10
17.4733183629
 20
12.6153764874
 30
0.0
 10
17.4678650781
 20
12.6727735385
 30
0.0
 10
17.4639216749
 20
12.7147551291
 30
0.0
 10
17.4599693001
 20
12.755791225
 30
0.0
 10
17.4558378225
 20
12.7957011851
 30
0.0
 10
17.4512913027
 20
12.8342815184
 30
0.0
 10
17.4468299623
 20
12.8654627002
 30
0.0
 10
17.4425761135
 20
12.8895061828
 30
0.0
 10
17.4389857058
 20
12.9068077722
 30
0.0
 10
17.4348232955
 20
12.9235034974
 30
0.0
 10
17.4298948972
 20
12.9394882673
 30
0.0
 10
17.4239001922
 20
12.9546082803
 30
0.0
 10
17.4163693885
 20
12.9686050301
 30
0.0
 10
17.4080651384
 20
12.9788995735
 30
0.0
 10
17.3997219755
 20
12.9854717366
 30
0.0
 10
17.3922629231
 20
12.9893117955
 30
0.0
 10
17.3835687757
 20
12.9915690273
 30
0.0
 10
17.3738607861
 20
12.9917687602
 30
0.0
 10
17.3636488571
 20
12.9898533462
 30
0.0
 10
17.353437598
 20
12.9861235669
 30
0.0
 10
17.3435682515
 20
12.9810207327
 30
0.0
 10
17.3310830731
 20
12.9729608919
 30
0.0
 10
17.3167713777
 20
12.9612433118
 30
0.0
 10
17.301246607
 20
12.9456773976
 30
0.0
 10
17.2870775988
 20
12.9291332174
 30
0.0
 10
17.27401975
 20
12.9118714039
 30
0.0
 10
17.2578638855
 20
12.8880896183
 30
0.0
 10
17.2396440583
 20
12.8570644323
 30
0.0
 10
17.2204066155
 20
12.8183062281
 30
0.0
 10
17.2034329146
 20
12.778258548
 30
0.0
 10
17.1884972376
 20
12.7371141895
 30
0.0
 10
17.1754494076
 20
12.6950406885
 30
0.0
 10
17.1641844634
 20
12.6521979905
 30
0.0
 10
17.1546230846
 20
12.60874022
 30
0.0
 10
17.1440622211
 20
12.5501753581
 30
0.0
 10
17.1385258811
 20
12.5058080594
 30
0.0
 10
17.1358281439
 20
12.4761477845
 30
0.0
  0
SPLINE
  5
390
100
AcDbEntity
  8
02___PRT_ALL_AXES
100
AcDbSpline
 62
7
  6
BYLAYER
 70
0
 71
3
 72
18
 73
14
 74
0
 42
0.0000001
 43
0.0000001
 44
0.0000000001
 40
0.0
 40
0.0
 40
0.0
 40
0.0
 40
0.1393852211
 40
0.2927819298
 40
0.4502785
 40
0.60149873
 40
0.736802521
 40
0.7960744217
 40
0.8488586442
 40
0.894900179
 40
0.9345235345
 40
0.9688231352
 40
1.0
 40
1.0
 40
1.0
 40
1.0
 10
18.3267573257
 20
12.694409573
 30
0.0
 10
18.3279459163
 20
12.6982558534
 30
0.0
 10
18.3297626609
 20
12.7065484902
 30
0.0
 10
18.3310121267
 20
12.7195164895
 30
0.0
 10
18.3308632347
 20
12.73288991
 30
0.0
 10
18.329326351
 20
12.7456460891
 30
0.0
 10
18.3269043679
 20
12.7553782875
 30
0.0
 10
18.3242762207
 20
12.7620324946
 30
0.0
 10
18.3221537372
 20
12.7660877391
 30
0.0
 10
18.319825568
 20
12.769358211
 30
0.0
 10
18.3173214114
 20
12.7717901981
 30
0.0
 10
18.3146544404
 20
12.7733230246
 30
0.0
 10
18.312751275
 20
12.7736869762
 30
0.0
 10
18.3118508209
 20
12.7736881306
 30
0.0
  0
SPLINE
  5
391
100
AcDbEntity
  8
0
100
AcDbSpline
 62
7
  6
BYLAYER
 70
0
 71
3
 72
19
 73
15
 74
0
 42
0.0000001
 43
0.0000001
 44
0.0000000001
 40
0.0
 40
0.0
 40
0.0
 40
0.0
 40
0.0507462123
 40
0.1026303083
 40
0.1566098205
 40
0.2133407452
 40
0.3356277874
 40
0.4012099063
 40
0.46901089
 40
0.6081793836
 40
0.7469386969
 40
0.8142573344
 40
0.8792050208
 40
1.0
 40
1.0
 40
1.0
 40
1.0
 10
17.7503563769
 20
13.7469890121
 30
0.0
 10
17.7466049406
 20
13.7546321591
 30
0.0
 10
17.7372617913
 20
13.7692921203
 30
0.0
 10
17.7185602057
 20
13.7880117268
 30
0.0
 10
17.6956375544
 20
13.8031262667
 30
0.0
 10
17.6594408854
 20
13.8183589154
 30
0.0
 10
17.6180964918
 20
13.8243993626
 30
0.0
 10
17.5751961979
 20
13.8221183197
 30
0.0
 10
17.5300828288
 20
13.8139675137
 30
0.0
 10
17.4752379217
 20
13.7934780009
 30
0.0
 10
17.42640772
 20
13.7613110459
 30
0.0
 10
17.3934773943
 20
13.7297767514
 30
0.0
 10
17.3667602809
 20
13.696707544
 30
0.0
 10
17.352167268
 20
13.6684473314
 30
0.0
 10
17.3461835207
 20
13.6490839178
 30
0.0
  0
SPLINE
  5
392
100
AcDbEntity
  8
0
100
AcDbSpline
 62
7
  6
BYLAYER
 70
0
 71
3
 72
13
 73
9
 74
0
 42
0.0000001
 43
0.0000001
 44
0.0000000001
 40
0.0
 40
0.0
 40
0.0
 40
0.0
 40
0.117823834
 40
0.2364399154
 40
0.3566033737
 40
0.4789921842
 40
0.7323264086
 40
1.0
 40
1.0
 40
1.0
 40
1.0
 10
17.1020073281
 20
13.4287937297
 30
0.0
 10
17.1065627605
 20
13.4195135728
 30
0.0
 10
17.1168274644
 20
13.4014188594
 30
0.0
 10
17.1354170418
 20
13.3761664271
 30
0.0
 10
17.1570877407
 20
13.3529470202
 30
0.0
 10
17.1902150789
 20
13.3246171045
 30
0.0
 10
17.2388969999
 20
13.2951970962
 30
0.0
 10
17.2821312593
 20
13.2794814438
 30
0.0
 10
17.3047989809
 20
13.273336429
 30
0.0
  0
SPLINE
  5
393
100
AcDbEntity
  8
0
100
AcDbSpline
 62
7
  6
BYLAYER
 70
0
 71
3
 72
9
 73
5
 74
0
 42
0.0000001
 43
0.0000001
 44
0.0000000001
 40
0.0
 40
0.0
 40
0.0
 40
0.0
 40
0.2421408115
 40
1.0
 40
1.0
 40
1.0
 40
1.0
 10
17.3047989809
 20
13.273336429
 30
0.0
 10
17.3144313545
 20
13.2707251794
 30
0.0
 10
17.3545922876
 20
13.2613652554
 30
0.0
 10
17.3959824898
 20
13.2575784723
 30
0.0
 10
17.4272179417
 20
13.2574268022
 30
0.0
  0
SPLINE
  5
394
100
AcDbEntity
  8
02___PRT_ALL_AXES
100
AcDbSpline
 62
7
  6
BYLAYER
 70
0
 71
3
 72
15
 73
11
 74
0
 42
0.0000001
 43
0.0000001
 44
0.0000000001
 40
0.0
 40
0.0
 40
0.0
 40
0.0
 40
0.1734563934
 40
0.3392725583
 40
0.4926163165
 40
0.6299720811
 40
0.7487638761
 40
0.8480145523
 40
0.9296139082
 40
1.0
 40
1.0
 40
1.0
 40
1.0
 10
18.2166171453
 20
12.9629835118
 30
0.0
 10
18.216486928
 20
12.9658885633
 30
0.0
 10
18.2160313857
 20
12.9715640696
 30
0.0
 10
18.2147547246
 20
12.9797317983
 30
0.0
 10
18.2129313751
 20
12.9871761777
 30
0.0
 10
18.210623432
 20
12.9936569998
 30
0.0
 10
18.2079052855
 20
12.9989843338
 30
0.0
 10
18.2048371316
 20
13.0030083523
 30
0.0
 10
18.2014452723
 20
13.0056255373
 30
0.0
 10
18.1988784961
 20
13.0062830562
 30
0.0
 10
18.1976984853
 20
13.0062817947
 30
0.0
  0
SPLINE
  5
395
100
AcDbEntity
  8
0
100
AcDbSpline
 62
7
  6
BYLAYER
 70
0
 71
3
 72
18
 73
14
 74
0
 42
0.0000001
 43
0.0000001
 44
0.0000000001
 40
0.0
 40
0.0
 40
0.0
 40
0.0
 40
0.0516661794
 40
0.1054491294
 40
0.1617946011
 40
0.2208946464
 40
0.3467249042
 40
0.480616812
 40
0.6179317831
 40
0.7532647628
 40
0.8186940707
 40
0.8818699936
 40
1.0
 40
1.0
 40
1.0
 40
1.0
 10
17.7460023721
 20
13.7426299949
 30
0.0
 10
17.7404130899
 20
13.7484001345
 30
0.0
 10
17.7278302556
 20
13.7590863431
 30
0.0
 10
17.7059576142
 20
13.7717464162
 30
0.0
 10
17.6812425487
 20
13.7810904379
 30
0.0
 10
17.6444655327
 20
13.7890511522
 30
0.0
 10
17.5943239837
 20
13.7894564024
 30
0.0
 10
17.5336299337
 20
13.775879698
 30
0.0
 10
17.47573082
 20
13.7494384951
 30
0.0
 10
17.4330540284
 20
13.7180063434
 30
0.0
 10
17.4045019807
 20
13.6883984569
 30
0.0
 10
17.3812974183
 20
13.6577914774
 30
0.0
 10
17.3685532483
 20
13.6320987269
 30
0.0
 10
17.363130291
 20
13.6145500307
 30
0.0
  0
SPLINE
  5
396
100
AcDbEntity
  8
0
100
AcDbSpline
 62
7
  6
BYLAYER
 70
0
 71
3
 72
14
 73
10
 74
0
 42
0.0000001
 43
0.0000001
 44
0.0000000001
 40
0.0
 40
0.0
 40
0.0
 40
0.0
 40
0.1118030173
 40
0.2252877949
 40
0.3419561606
 40
0.4629904388
 40
0.5891767907
 40
0.7208863497
 40
1.0
 40
1.0
 40
1.0
 40
1.0
 10
17.999720155
 20
13.8693741059
 30
0.0
 10
18.0065883453
 20
13.8553824851
 30
0.0
 10
18.0179002002
 20
13.8258692387
 30
0.0
 10
18.026860591
 20
13.7788129711
 30
0.0
 10
18.0277635754
 20
13.7296375061
 30
0.0
 10
18.0206354622
 20
13.6792147771
 30
0.0
 10
18.0056377431
 20
13.6283734083
 30
0.0
 10
17.9749796864
 20
13.5598943959
 30
0.0
 10
17.9418594027
 20
13.5123460513
 30
0.0
 10
17.9164835616
 20
13.4828477537
 30
0.0
  0
SPLINE
  5
397
100
AcDbEntity
  8
0
100
AcDbSpline
 62
7
  6
BYLAYER
 70
0
 71
3
 72
9
 73
5
 74
0
 42
0.0000001
 43
0.0000001
 44
0.0000000001
 40
0.0
 40
0.0
 40
0.0
 40
0.0
 40
0.495777694
 40
1.0
 40
1.0
 40
1.0
 40
1.0
 10
17.8673208462
 20
13.43220335
 30
0.0
 10
17.8387821824
 20
13.4060447198
 30
0.0
 10
17.7762284586
 20
13.3585408249
 30
0.0
 10
17.7065352486
 20
13.3224007803
 30
0.0
 10
17.6701692398
 20
13.3073099425
 30
0.0
  0
SPLINE
  5
398
100
AcDbEntity
  8
0
100
AcDbSpline
 62
7
  6
BYLAYER
 70
0
 71
3
 72
9
 73
5
 74
0
 42
0.0000001
 43
0.0000001
 44
0.0000000001
 40
0.0
 40
0.0
 40
0.0
 40
0.0
 40
0.5101611584
 40
1.0
 40
1.0
 40
1.0
 40
1.0
 10
17.6701692398
 20
13.3073099425
 30
0.0
 10
17.6314311477
 20
13.2912347591
 30
0.0
 10
17.5524621825
 20
13.2665538218
 30
0.0
 10
17.4701009
 20
13.257420463
 30
0.0
 10
17.4298305798
 20
13.257420463
 30
0.0
  0
SPLINE
  5
399
100
AcDbEntity
  8
0
100
AcDbSpline
 62
7
  6
BYLAYER
 70
0
 71
3
 72
21
 73
17
 74
0
 42
0.0000001
 43
0.0000001
 44
0.0000000001
 40
0.0
 40
0.0
 40
0.0
 40
0.0
 40
0.0495888026
 40
0.1038065107
 40
0.16222508
 40
0.2243378031
 40
0.2895284024
 40
0.3571161443
 40
0.4964942402
 40
0.6363614815
 40
0.704551221
 40
0.770567765
 40
0.833712951
 40
0.8933467882
 40
0.9489322068
 40
1.0
 40
1.0
 40
1.0
 40
1.0
 10
17.6860481846
 20
12.8572903159
 30
0.0
 10
17.6784567802
 20
12.842930062
 30
0.0
 10
17.6641116945
 20
12.8120404665
 30
0.0
 10
17.645678412
 20
12.7621547386
 30
0.0
 10
17.6295690143
 20
12.7071850888
 30
0.0
 10
17.6159934626
 20
12.6478510766
 30
0.0
 10
17.6051316708
 20
12.5849134469
 30
0.0
 10
17.594355819
 20
12.4963889281
 30
0.0
 10
17.5885885511
 20
12.3827616987
 30
0.0
 10
17.5927924724
 20
12.2688715398
 30
0.0
 10
17.6023147892
 20
12.1795729048
 30
0.0
 10
17.6122961102
 20
12.1156748547
 30
0.0
 10
17.6250403025
 20
12.0551290137
 30
0.0
 10
17.6403779121
 20
11.9987133728
 30
0.0
 10
17.6581087959
 20
11.9471676558
 30
0.0
 10
17.6719869968
 20
11.9150523409
 30
0.0
 10
17.6793563098
 20
11.90003526
 30
0.0
  0
SPLINE
  5
39A
100
AcDbEntity
  8
0
100
AcDbSpline
 62
7
  6
BYLAYER
 70
0
 71
3
 72
27
 73
23
 74
0
 42
0.0000001
 43
0.0000001
 44
0.0000000001
 40
0.0
 40
0.0
 40
0.0
 40
0.0
 40
0.0673799367
 40
0.1393925625
 40
0.2149169197
 40
0.2927566437
 40
0.3716262347
 40
0.4502182411
 40
0.5272305485
 40
0.6014076053
 40
0.6715801875
 40
0.7367097767
 40
0.7959420652
 40
0.8486788797
 40
0.8725360427
 40
0.8947234908
 40
0.9152965965
 40
0.9343652929
 40
0.9520959698
 40
0.9687275075
 40
0.9845705757
 40
1.0
 40
1.0
 40
1.0
 40
1.0
 10
17.9759711089
 20
12.832626332
 30
0.0
 10
17.9694369758
 20
12.8114818697
 30
0.0
 10
17.9577453636
 20
12.7671631654
 30
0.0
 10
17.9444693041
 20
12.6977869783
 30
0.0
 10
17.9350575666
 20
12.6243177677
 30
0.0
 10
17.9296940728
 20
12.548189872
 30
0.0
 10
17.9284886807
 20
12.4708761026
 30
0.0
 10
17.9314639516
 20
12.3938818962
 30
0.0
 10
17.9385614044
 20
12.3187034901
 30
0.0
 10
17.9496393559
 20
12.2467995886
 30
0.0
 10
17.9644771127
 20
12.1795610408
 30
0.0
 10
17.982782261
 20
12.1182724604
 30
0.0
 10
18.0041980945
 20
12.0641054534
 30
0.0
 10
18.0249507113
 20
12.0244710873
 30
0.0
 10
18.0429844511
 20
11.9974658302
 30
0.0
 10
18.0565648542
 20
11.9802749623
 30
0.0
 10
18.070598468
 20
11.9655497771
 30
0.0
 10
18.0850235073
 20
11.9533587172
 30
0.0
 10
18.0997874021
 20
11.9437735165
 30
0.0
 10
18.1148296027
 20
11.9368569759
 30
0.0
 10
18.1300721022
 20
11.9326707595
 30
0.0
 10
18.1403664148
 20
11.9317333626
 30
0.0
 10
18.1454342334
 20
11.9317329474
 30
0.0
  0
SPLINE
  5
39B
100
AcDbEntity
  8
0
100
AcDbSpline
 62
7
  6
BYLAYER
 70
0
 71
3
 72
9
 73
5
 74
0
 42
0.0000001
 43
0.0000001
 44
0.0000000001
 40
0.0
 40
0.0
 40
0.0
 40
0.0
 40
0.4818021616
 40
1.0
 40
1.0
 40
1.0
 40
1.0
 10
17.9624362191
 20
13.2199957319
 30
0.0
 10
17.9754678541
 20
13.1922616773
 30
0.0
 10
18.0002009548
 20
13.1335971786
 30
0.0
 10
18.0209930419
 20
13.0734453223
 30
0.0
 10
18.0308827811
 20
13.0420062015
 30
0.0
  0
SPLINE
  5
39C
100
AcDbEntity
  8
0
100
AcDbSpline
 62
7
  6
BYLAYER
 70
0
 71
3
 72
23
 73
19
 74
0
 42
0.0000001
 43
0.0000001
 44
0.0000000001
 40
0.0
 40
0.0
 40
0.0
 40
0.0
 40
0.0785507651
 40
0.1510349969
 40
0.2176167142
 40
0.2786696268
 40
0.3348470521
 40
0.387116827
 40
0.4367906832
 40
0.4854567257
 40
0.5348266454
 40
0.5865263528
 40
0.6419235463
 40
0.7020476416
 40
0.7675985099
 40
0.8390103688
 40
0.9164960512
 40
1.0
 40
1.0
 40
1.0
 40
1.0
 10
18.0086253892
 20
11.9388194184
 30
0.0
 10
18.0031597168
 20
11.9291076253
 30
0.0
 10
17.991995321
 20
11.9107886009
 30
0.0
 10
17.9737357795
 20
11.8858418337
 30
0.0
 10
17.9547364609
 20
11.8646695798
 30
0.0
 10
17.9350896286
 20
11.8474119928
 30
0.0
 10
17.9148927997
 20
11.8341872461
 30
0.0
 10
17.8942411834
 20
11.8251270902
 30
0.0
 10
17.8732701971
 20
11.8203508631
 30
0.0
 10
17.8521670182
 20
11.8199581534
 30
0.0
 10
17.8311564616
 20
11.8239524838
 30
0.0
 10
17.8104368966
 20
11.832255952
 30
0.0
 10
17.7901503115
 20
11.8447440277
 30
0.0
 10
17.7703991912
 20
11.8612886871
 30
0.0
 10
17.7512764918
 20
11.8817678579
 30
0.0
 10
17.7328748143
 20
11.9060529626
 30
0.0
 10
17.7153025824
 20
11.9339915939
 30
0.0
 10
17.7045973896
 20
11.9541912133
 30
0.0
 10
17.6993783295
 20
11.9648265395
 30
0.0
  0
SPLINE
  5
39D
100
AcDbEntity
  8
0
100
AcDbSpline
 62
7
  6
BYLAYER
 70
0
 71
3
 72
16
 73
12
 74
0
 42
0.0000001
 43
0.0000001
 44
0.0000000001
 40
0.0
 40
0.0
 40
0.0
 40
0.0
 40
0.0487947765
 40
0.1009179014
 40
0.2141225736
 40
0.3374366245
 40
0.4680888193
 40
0.6029711642
 40
0.7387911681
 40
0.8722072207
 40
1.0
 40
1.0
 40
1.0
 40
1.0
 10
17.6993783295
 20
11.9648265395
 30
0.0
 10
17.6947113293
 20
11.974336886
 30
0.0
 10
17.6857587779
 20
11.9943547153
 30
0.0
 10
17.6693432546
 20
12.0378700426
 30
0.0
 10
17.6520084762
 20
12.0982044879
 30
0.0
 10
17.6365994956
 20
12.1764952168
 30
0.0
 10
17.6265070039
 20
12.2603854793
 30
0.0
 10
17.622026628
 20
12.3474714644
 30
0.0
 10
17.6232941244
 20
12.4352647085
 30
0.0
 10
17.6302689564
 20
12.5212422899
 30
0.0
 10
17.6388384045
 20
12.5773659884
 30
0.0
 10
17.6441408065
 20
12.6045994726
 30
0.0
  0
SPLINE
  5
39E
100
AcDbEntity
  8
02___PRT_ALL_AXES
100
AcDbSpline
 62
7
  6
BYLAYER
 70
0
 71
3
 72
17
 73
13
 74
0
 42
0.0000001
 43
0.0000001
 44
0.0000000001
 40
0.0
 40
0.0
 40
0.0
 40
0.0
 40
0.0328478074
 40
0.0676279268
 40
0.1059114104
 40
0.148752321
 40
0.2498936423
 40
0.3721854089
 40
0.5131913382
 40
0.6685235917
 40
0.8329156281
 40
1.0
 40
1.0
 40
1.0
 40
1.0
 10
18.1977091118
 20
12.908504228
 30
0.0
 10
18.1983824082
 20
12.9085049478
 30
0.0
 10
18.1997745556
 20
12.9087010901
 30
0.0
 10
18.2017933519
 20
12.9095512971
 30
0.0
 10
18.2037440441
 20
12.9109342508
 30
0.0
 10
18.2063795739
 20
12.9136025499
 30
0.0
 10
18.2093369478
 20
12.9182528601
 30
0.0
 10
18.2122039104
 20
12.9251730348
 30
0.0
 10
18.2144638551
 20
12.933471228
 30
0.0
 10
18.2160185757
 20
12.9427994705
 30
0.0
 10
18.2167937255
 20
12.9527589102
 30
0.0
 10
18.2167705064
 20
12.9595621415
 30
0.0
 10
18.2166171453
 20
12.9629835118
 30
0.0
  0
SPLINE
  5
39F
100
AcDbEntity
  8
0
100
AcDbSpline
 62
7
  6
BYLAYER
 70
0
 71
3
 72
9
 73
5
 74
0
 42
0.0000001
 43
0.0000001
 44
0.0000000001
 40
0.0
 40
0.0
 40
0.0
 40
0.0
 40
0.2435031035
 40
1.0
 40
1.0
 40
1.0
 40
1.0
 10
17.7038821175
 20
12.8884825236
 30
0.0
 10
17.7023455454
 20
12.8860033646
 30
0.0
 10
17.6961297463
 20
12.8757637353
 30
0.0
 10
17.6902830997
 20
12.8653012782
 30
0.0
 10
17.6860481846
 20
12.8572903159
 30
0.0
  0
SPLINE
  5
3A0
100
AcDbEntity
  8
0
100
AcDbSpline
 62
7
  6
BYLAYER
 70
0
 71
3
 72
39
 73
35
 74
0
 42
0.0000001
 43
0.0000001
 44
0.0000000001
 40
0.0
 40
0.0
 40
0.0
 40
0.0
 40
0.1396360397
 40
0.2087173153
 40
0.277373246
 40
0.3456954715
 40
0.4138378813
 40
0.4479195606
 40
0.4820738271
 40
0.5163769802
 40
0.5509447872
 40
0.5859667366
 40
0.6037460622
 40
0.6217904022
 40
0.6402073981
 40
0.6591745788
 40
0.6790110597
 40
0.7002398843
 40
0.7112710249
 40
0.7207065455
 40
0.7276923309
 40
0.7331367391
 40
0.7381186355
 40
0.7430090982
 40
0.7529399328
 40
0.7632491439
 40
0.7739231161
 40
0.7961804495
 40
0.8194304804
 40
0.8434826063
 40
0.868217098
 40
0.893554072
 40
0.9458226536
 40
1.0
 40
1.0
 40
1.0
 40
1.0
 10
17.7014796305
 20
12.8181696822
 30
0.0
 10
17.7036151901
 20
12.8243068636
 30
0.0
 10
17.7068441591
 20
12.8334674353
 30
0.0
 10
17.7111840584
 20
12.8456238599
 30
0.0
 10
17.7144211745
 20
12.8546501628
 30
0.0
 10
17.7176406099
 20
12.8636363814
 30
0.0
 10
17.7202944849
 20
12.8711161402
 30
0.0
 10
17.7223816259
 20
12.8771096798
 30
0.0
 10
17.723924758
 20
12.8816250878
 30
0.0
 10
17.7254374458
 20
12.8861746858
 30
0.0
 10
17.7269073726
 20
12.890780732
 30
0.0
 10
17.7280742146
 20
12.8946759516
 30
0.0
 10
17.7289533804
 20
12.8978535746
 30
0.0
 10
17.7295812565
 20
12.9002986353
 30
0.0
 10
17.7301599786
 20
12.9028124807
 30
0.0
 10
17.730666368
 20
12.905428246
 30
0.0
 10
17.7310397139
 20
12.9081964591
 30
0.0
 10
17.7311450634
 20
12.9106326253
 30
0.0
 10
17.730857057
 20
12.9125594169
 30
0.0
 10
17.7303882499
 20
12.9137696515
 30
0.0
 10
17.7296714874
 20
12.914537219
 30
0.0
 10
17.7289018872
 20
12.914845518
 30
0.0
 10
17.7281847294
 20
12.9149033511
 30
0.0
 10
17.7272661015
 20
12.9147861879
 30
0.0
 10
17.72615457
 20
12.9143906558
 30
0.0
 10
17.7248850108
 20
12.9137095159
 30
0.0
 10
17.7232118687
 20
12.9125871042
 30
0.0
 10
17.7211966337
 20
12.9109129778
 30
0.0
 10
17.7188770915
 20
12.9086525474
 30
0.0
 10
17.7166113157
 20
12.9061798991
 30
0.0
 10
17.7143921825
 20
12.9035380028
 30
0.0
 10
17.7114585703
 20
12.8997852912
 30
0.0
 10
17.7078988583
 20
12.8947877555
 30
0.0
 10
17.7052103242
 20
12.8906254987
 30
0.0
 10
17.7038821175
 20
12.8884825236
 30
0.0
  0
SPLINE
  5
3A1
100
AcDbEntity
  8
02___PRT_ALL_AXES
100
AcDbSpline
 62
7
  6
BYLAYER
 70
0
 71
3
 72
13
 73
9
 74
0
 42
0.0000001
 43
0.0000001
 44
0.0000000001
 40
0.0
 40
0.0
 40
0.0
 40
0.0
 40
0.0859159704
 40
0.1775515467
 40
0.2793768109
 40
0.3943308344
 40
0.6682047645
 40
1.0
 40
1.0
 40
1.0
 40
1.0
 10
18.3118375147
 20
12.6759106567
 30
0.0
 10
18.3125575889
 20
12.6759097335
 30
0.0
 10
18.3140534036
 20
12.6761332678
 30
0.0
 10
18.3162086071
 20
12.677106445
 30
0.0
 10
18.318281912
 20
12.6786793612
 30
0.0
 10
18.3210742588
 20
12.6817206139
 30
0.0
 10
18.3241519196
 20
12.6869843676
 30
0.0
 10
18.3259362941
 20
12.6917527138
 30
0.0
 10
18.3267573257
 20
12.694409573
 30
0.0
  0
SPLINE
  5
3A2
100
AcDbEntity
  8
02___PRT_ALL_AXES
100
AcDbSpline
 62
7
  6
BYLAYER
 70
0
 71
3
 72
14
 73
10
 74
0
 42
0.0000001
 43
0.0000001
 44
0.0000000001
 40
0.0
 40
0.0
 40
0.0
 40
0.0
 40
0.2699413971
 40
0.409422653
 40
0.5451038101
 40
0.6729232389
 40
0.7905540687
 40
0.898363335
 40
1.0
 40
1.0
 40
1.0
 40
1.0
 10
17.8769142671
 20
13.556819943
 30
0.0
 10
17.8696639362
 20
13.556819943
 30
0.0
 10
17.8585602313
 20
13.5541944459
 30
0.0
 10
17.8457678146
 20
13.5469763349
 30
0.0
 10
17.83749411
 20
13.5398688494
 30
0.0
 10
17.8312815401
 20
13.5316220131
 30
0.0
 10
17.8275736549
 20
13.5227585807
 30
0.0
 10
17.826714578
 20
13.5138618389
 30
0.0
 10
17.8282192009
 20
13.5082813669
 30
0.0
 10
17.8294209345
 20
13.5058302618
 30
0.0
  0
SPLINE
  5
3A3
100
AcDbEntity
  8
02___PRT_ALL_AXES
100
AcDbSpline
 62
7
  6
BYLAYER
 70
0
 71
3
 72
13
 73
9
 74
0
 42
0.0000001
 43
0.0000001
 44
0.0000000001
 40
0.0
 40
0.0
 40
0.0
 40
0.0
 40
0.1031957305
 40
0.210660594
 40
0.3254562861
 40
0.4488597387
 40
0.717263436
 40
1.0
 40
1.0
 40
1.0
 40
1.0
 10
17.9814338042
 20
13.7923327638
 30
0.0
 10
17.9804611404
 20
13.7943186225
 30
0.0
 10
17.9778243165
 20
13.7980835632
 30
0.0
 10
17.9722616788
 20
13.8024318016
 30
0.0
 10
17.965376752
 20
13.8053598359
 30
0.0
 10
17.9546161178
 20
13.8072775479
 30
0.0
 10
17.9399460082
 20
13.8055207786
 30
0.0
 10
17.9290438534
 20
13.8004497475
 30
0.0
 10
17.9240187409
 20
13.7970655042
 30
0.0
  0
SPLINE
  5
3A4
100
AcDbEntity
  8
0
100
AcDbSpline
 62
7
  6
BYLAYER
 70
0
 71
3
 72
11
 73
7
 74
0
 42
0.0000001
 43
0.0000001
 44
0.0000000001
 40
0.0
 40
0.0
 40
0.0
 40
0.0
 40
0.2617823039
 40
0.5172499606
 40
0.7637096935
 40
1.0
 40
1.0
 40
1.0
 40
1.0
 10
17.6441408065
 20
12.6045994726
 30
0.0
 10
17.6477982885
 20
12.6233845403
 30
0.0
 10
17.6554838155
 20
12.6604173677
 30
0.0
 10
17.668948973
 20
12.714616461
 30
0.0
 10
17.6840270868
 20
12.7664497111
 30
0.0
 10
17.695155144
 20
12.7999487508
 30
0.0
 10
17.700818804
 20
12.816268094
 30
0.0
  0
LINE
  5
3A5
100
AcDbEntity
  8
0
100
AcDbLine
 62
7
  6
BYLAYER
 10
17.700818804
 20
12.816268094
 11
17.7014796305
 21
12.8181696822
  0
SPLINE
  5
3A6
100
AcDbEntity
  8
0
100
AcDbSpline
 62
7
  6
BYLAYER
 70
0
 71
3
 72
16
 73
12
 74
0
 42
0.0000001
 43
0.0000001
 44
0.0000000001
 40
0.0
 40
0.0
 40
0.0
 40
0.0
 40
0.1727277788
 40
0.3318329829
 40
0.476263825
 40
0.60572772
 40
0.720621193
 40
0.8224009997
 40
0.9139510908
 40
0.9573472248
 40
1.0
 40
1.0
 40
1.0
 40
1.0
 10
17.9759711089
 20
12.832626332
 30
0.0
 10
17.9808313086
 20
12.8483539442
 30
0.0
 10
17.9911158334
 20
12.8782907764
 30
0.0
 10
18.0090523378
 20
12.9200384804
 30
0.0
 10
18.0287009781
 20
12.956402796
 30
0.0
 10
18.049832345
 20
12.9869502182
 30
0.0
 10
18.0722516134
 20
13.0113317449
 30
0.0
 10
18.095772218
 20
13.0292375295
 30
0.0
 10
18.1165834126
 20
13.0386149725
 30
0.0
 10
18.1331652137
 20
13.0422450593
 30
0.0
 10
18.1413784607
 20
13.0428423071
 30
0.0
 10
18.1454433918
 20
13.0428419741
 30
0.0
  0
SPLINE
  5
3A7
100
AcDbEntity
  8
02___PRT_ALL_AXES
100
AcDbSpline
 62
7
  6
BYLAYER
 70
0
 71
3
 72
17
 73
13
 74
0
 42
0.0000001
 43
0.0000001
 44
0.0000000001
 40
0.0
 40
0.0
 40
0.0
 40
0.0
 40
0.050785639
 40
0.1027115068
 40
0.2130418717
 40
0.3354275365
 40
0.4686469943
 40
0.6079206891
 40
0.67794138
 40
0.747024586
 40
0.879108976
 40
1.0
 40
1.0
 40
1.0
 40
1.0
 10
17.8283134039
 20
13.9689884687
 30
0.0
 10
17.827609181
 20
13.9704210162
 30
0.0
 10
17.8258558002
 20
13.9731686462
 30
0.0
 10
17.8210933711
 20
13.9779397741
 30
0.0
 10
17.8129318877
 20
13.9821359458
 30
0.0
 10
17.8013901398
 20
13.9838017873
 30
0.0
 10
17.7889468877
 20
13.9822640006
 30
0.0
 10
17.7787674033
 20
13.9784581137
 30
0.0
 10
17.771191433
 20
13.9740472008
 30
0.0
 10
17.7643585668
 20
13.9689237503
 30
0.0
 10
17.7573720305
 20
13.9614534901
 30
0.0
 10
17.7536559644
 20
13.9542558883
 30
0.0
 10
17.7525340769
 20
13.9506254591
 30
0.0
  0
SPLINE
  5
3A8
100
AcDbEntity
  8
02___PRT_ALL_AXES
100
AcDbSpline
 62
7
  6
BYLAYER
 70
0
 71
3
 72
12
 73
8
 74
0
 42
0.0000001
 43
0.0000001
 44
0.0000000001
 40
0.0
 40
0.0
 40
0.0
 40
0.0
 40
0.28537213
 40
0.5482032364
 40
0.783336304
 40
0.8930741235
 40
1.0
 40
1.0
 40
1.0
 40
1.0
 10
17.1376985975
 20
13.5472603122
 30
0.0
 10
17.1338571617
 20
13.5446732351
 30
0.0
 10
17.1270455881
 20
13.5387647274
 30
0.0
 10
17.1199829923
 20
13.5279770489
 30
0.0
 10
17.1176283065
 20
13.5181060283
 30
0.0
 10
17.1183622724
 20
13.5107523301
 30
0.0
 10
17.1195303668
 20
13.5073935029
 30
0.0
 10
17.1202936788
 20
13.5058350717
 30
0.0
  0
SPLINE
  5
3A9
100
AcDbEntity
  8
02___PRT_ALL_AXES
100
AcDbSpline
 62
7
  6
BYLAYER
 70
0
 71
3
 72
19
 73
15
 74
0
 42
0.0000001
 43
0.0000001
 44
0.0000000001
 40
0.0
 40
0.0
 40
0.0
 40
0.0
 40
0.0313852112
 40
0.0665255793
 40
0.1078722031
 40
0.1565166979
 40
0.2125481958
 40
0.2754804481
 40
0.4179574941
 40
0.5738524124
 40
0.7308416845
 40
0.8764220623
 40
0.9415674586
 40
1.0
 40
1.0
 40
1.0
 40
1.0
 10
18.2379354024
 20
12.0110819302
 30
0.0
 10
18.2389305809
 20
12.0110830052
 30
0.0
 10
18.2410552756
 20
12.0115329757
 30
0.0
 10
18.2439770294
 20
12.0134080023
 30
0.0
 10
18.2466891524
 20
12.0163446447
 30
0.0
 10
18.2491698252
 20
12.0202758333
 30
0.0
 10
18.251388517
 20
12.0251184172
 30
0.0
 10
18.2540361179
 20
12.0329863479
 30
0.0
 10
18.2562623321
 20
12.0442722572
 30
0.0
 10
18.2572521745
 20
12.0587089725
 30
0.0
 10
18.2565486097
 20
12.0732604899
 30
0.0
 10
18.2545544315
 20
12.084793685
 30
0.0
 10
18.2520761973
 20
12.0929699546
 30
0.0
 10
18.2505809114
 20
12.096602404
 30
0.0
 10
18.2497646694
 20
12.0982657305
 30
0.0
  0
SPLINE
  5
3AA
100
AcDbEntity
  8
02___PRT_ALL_AXES
100
AcDbSpline
 62
7
  6
BYLAYER
 70
0
 71
3
 72
17
 73
13
 74
0
 42
0.0000001
 43
0.0000001
 44
0.0000000001
 40
0.0
 40
0.0
 40
0.0
 40
0.0
 40
0.0328478074
 40
0.0676279268
 40
0.1059114104
 40
0.148752321
 40
0.2498936423
 40
0.3721854089
 40
0.5131913382
 40
0.6685235917
 40
0.8329156281
 40
1.0
 40
1.0
 40
1.0
 40
1.0
 10
18.0931791398
 20
11.9682931268
 30
0.0
 10
18.0938524362
 20
11.9682938466
 30
0.0
 10
18.0952445836
 20
11.9684899889
 30
0.0
 10
18.0972633799
 20
11.9693401959
 30
0.0
 10
18.0992140721
 20
11.9707231496
 30
0.0
 10
18.1018496019
 20
11.9733914487
 30
0.0
 10
18.1048069758
 20
11.9780417589
 30
0.0
 10
18.1076739384
 20
11.9849619336
 30
0.0
 10
18.1099338831
 20
11.9932601268
 30
0.0
 10
18.1114886038
 20
12.0025883693
 30
0.0
 10
18.1122637535
 20
12.012547809
 30
0.0
 10
18.1122405344
 20
12.0193510403
 30
0.0
 10
18.1120871733
 20
12.0227724106
 30
0.0
  0
SPLINE
  5
3AB
100
AcDbEntity
  8
02___PRT_ALL_AXES
100
AcDbSpline
 62
7
  6
BYLAYER
 70
0
 71
3
 72
10
 73
6
 74
0
 42
0.0000001
 43
0.0000001
 44
0.0000000001
 40
0.0
 40
0.0
 40
0.0
 40
0.0
 40
0.5161344746
 40
0.7604943016
 40
1.0
 40
1.0
 40
1.0
 40
1.0
 10
17.7525340769
 20
13.9506254591
 30
0.0
 10
17.7515803298
 20
13.9475391323
 30
0.0
 10
17.7508659121
 20
13.9426975283
 30
0.0
 10
17.751795682
 20
13.9364754876
 30
0.0
 10
17.7528485303
 20
13.9336076873
 30
0.0
 10
17.7535098328
 20
13.9322624494
 30
0.0
  0
SPLINE
  5
3AC
100
AcDbEntity
  8
02___PRT_ALL_AXES
100
AcDbSpline
 62
7
  6
BYLAYER
 70
0
 71
3
 72
13
 73
9
 74
0
 42
0.0000001
 43
0.0000001
 44
0.0000000001
 40
0.0
 40
0.0
 40
0.0
 40
0.0
 40
0.0859159704
 40
0.1775515467
 40
0.2793768109
 40
0.3943308344
 40
0.6682047645
 40
1.0
 40
1.0
 40
1.0
 40
1.0
 10
17.9790268043
 20
12.2008867908
 30
0.0
 10
17.9797468784
 20
12.2008858676
 30
0.0
 10
17.9812426931
 20
12.201109402
 30
0.0
 10
17.9833978967
 20
12.2020825791
 30
0.0
 10
17.9854712015
 20
12.2036554954
 30
0.0
 10
17.9882635484
 20
12.206696748
 30
0.0
 10
17.9913412092
 20
12.2119605017
 30
0.0
 10
17.9931255837
 20
12.2167288479
 30
0.0
 10
17.9939466153
 20
12.2193857071
 30
0.0
  0
SPLINE
  5
3AD
100
AcDbEntity
  8
0
100
AcDbSpline
 62
7
  6
BYLAYER
 70
0
 71
3
 72
15
 73
11
 74
0
 42
0.0000001
 43
0.0000001
 44
0.0000000001
 40
0.0
 40
0.0
 40
0.0
 40
0.0
 40
0.172758025
 40
0.3319117447
 40
0.4763755511
 40
0.6058615397
 40
0.7207814068
 40
0.8225807492
 40
0.9141477816
 40
1.0
 40
1.0
 40
1.0
 40
1.0
 10
18.2301726644
 20
12.3146180251
 30
0.0
 10
18.2277425578
 20
12.3067541973
 30
0.0
 10
18.2225996737
 20
12.2917849137
 30
0.0
 10
18.213631028
 20
12.2709096854
 30
0.0
 10
18.2038061838
 20
12.2527262908
 30
0.0
 10
18.1932381437
 20
12.2374529043
 30
0.0
 10
18.1820310479
 20
12.2252614669
 30
0.0
 10
18.1702610918
 20
12.2163100793
 30
0.0
 10
18.1580158877
 20
12.2107800302
 30
0.0
 10
18.1495203763
 20
12.2095086016
 30
0.0
 10
18.1454301009
 20
12.2095098656
 30
0.0
  0
SPLINE
  5
3AE
100
AcDbEntity
  8
0
100
AcDbSpline
 62
7
  6
BYLAYER
 70
0
 71
3
 72
13
 73
9
 74
0
 42
0.0000001
 43
0.0000001
 44
0.0000000001
 40
0.0
 40
0.0
 40
0.0
 40
0.0
 40
0.1250950905
 40
0.2462665232
 40
0.4847745082
 40
0.7292419647
 40
0.8593844969
 40
1.0
 40
1.0
 40
1.0
 40
1.0
 10
17.9530883999
 20
13.234341825
 30
0.0
 10
17.9493898457
 20
13.2390374239
 30
0.0
 10
17.9415576137
 20
13.2478539816
 30
0.0
 10
17.9246908852
 20
13.2637578877
 30
0.0
 10
17.9012572518
 20
13.2808682757
 30
0.0
 10
17.8745617904
 20
13.2935026332
 30
0.0
 10
17.8507595461
 20
13.2999994663
 30
0.0
 10
17.8378416545
 20
13.3015733865
 30
0.0
 10
17.8311252227
 20
13.3017548149
 30
0.0
  0
SPLINE
  5
3AF
100
AcDbEntity
  8
02___PRT_ALL_AXES
100
AcDbSpline
 62
7
  6
BYLAYER
 70
0
 71
3
 72
11
 73
7
 74
0
 42
0.0000001
 43
0.0000001
 44
0.0000000001
 40
0.0
 40
0.0
 40
0.0
 40
0.0
 40
0.3156806228
 40
0.5821591739
 40
0.8046012074
 40
1.0
 40
1.0
 40
1.0
 40
1.0
 10
18.064781663
 20
12.9529011554
 30
0.0
 10
18.0640103654
 20
12.9544728946
 30
0.0
 10
18.0624051414
 20
12.9572909281
 30
0.0
 10
18.0595172686
 20
12.9607355632
 30
0.0
 10
18.0563611969
 20
12.9629527106
 30
0.0
 10
18.0540259191
 20
12.9634941619
 30
0.0
 10
18.0529422227
 20
12.9634929913
 30
0.0
  0
SPLINE
  5
3B0
100
AcDbEntity
  8
02___PRT_ALL_AXES
100
AcDbSpline
 62
7
  6
BYLAYER
 70
0
 71
3
 72
19
 73
15
 74
0
 42
0.0000001
 43
0.0000001
 44
0.0000000001
 40
0.0
 40
0.0
 40
0.0
 40
0.0
 40
0.0313852112
 40
0.0665255793
 40
0.1078722031
 40
0.1565166979
 40
0.2125481958
 40
0.2754804481
 40
0.4179574941
 40
0.5738524124
 40
0.7308416845
 40
0.8764220623
 40
0.9415674586
 40
1.0
 40
1.0
 40
1.0
 40
1.0
 10
18.052952396
 20
12.8657173551
 30
0.0
 10
18.0539475745
 20
12.8657184302
 30
0.0
 10
18.0560722692
 20
12.8661684007
 30
0.0
 10
18.058994023
 20
12.8680434272
 30
0.0
 10
18.061706146
 20
12.8709800697
 30
0.0
 10
18.0641868188
 20
12.8749112582
 30
0.0
 10
18.0664055106
 20
12.8797538421
 30
0.0
 10
18.0690531115
 20
12.8876217729
 30
0.0
 10
18.0712793257
 20
12.8989076821
 30
0.0
 10
18.0722691681
 20
12.9133443974
 30
0.0
 10
18.0715656033
 20
12.9278959148
 30
0.0
 10
18.0695714251
 20
12.9394291099
 30
0.0
 10
18.0670931909
 20
12.9476053796
 30
0.0
 10
18.065597905
 20
12.951237829
 30
0.0
 10
18.064781663
 20
12.9529011554
 30
0.0
  0
SPLINE
  5
3B1
100
AcDbEntity
  8
0
100
AcDbSpline
 62
7
  6
BYLAYER
 70
0
 71
3
 72
10
 73
6
 74
0
 42
0.0000001
 43
0.0000001
 44
0.0000000001
 40
0.0
 40
0.0
 40
0.0
 40
0.0
 40
0.5151703601
 40
0.7604952958
 40
1.0
 40
1.0
 40
1.0
 40
1.0
 10
17.363130291
 20
13.6145500307
 30
0.0
 10
17.3590399014
 20
13.6013135249
 30
0.0
 10
17.3553776043
 20
13.5808367262
 30
0.0
 10
17.3566964716
 20
13.5538979047
 30
0.0
 10
17.3593749481
 20
13.5410670056
 30
0.0
 10
17.3612040466
 20
13.5348913529
 30
0.0
  0
SPLINE
  5
3B2
100
AcDbEntity
  8
02___PRT_ALL_AXES
100
AcDbSpline
 62
7
  6
BYLAYER
 70
0
 71
3
 72
11
 73
7
 74
0
 42
0.0000001
 43
0.0000001
 44
0.0000000001
 40
0.0
 40
0.0
 40
0.0
 40
0.0
 40
0.2268632804
 40
0.4650145788
 40
0.722100556
 40
1.0
 40
1.0
 40
1.0
 40
1.0
 10
17.2723065486
 20
13.7923375737
 30
0.0
 10
17.271228146
 20
13.7945371277
 30
0.0
 10
17.268210729
 20
13.7986894505
 30
0.0
 10
17.2617559039
 20
13.8032662406
 30
0.0
 10
17.253788423
 20
13.806049528
 30
0.0
 10
17.2479861948
 20
13.806625135
 30
0.0
 10
17.2449854096
 20
13.806625135
 30
0.0
  0
SPLINE
  5
3B3
100
AcDbEntity
  8
02___PRT_ALL_AXES
100
AcDbSpline
 62
7
  6
BYLAYER
 70
0
 71
3
 72
19
 73
15
 74
0
 42
0.0000001
 43
0.0000001
 44
0.0000000001
 40
0.0
 40
0.0
 40
0.0
 40
0.0
 40
0.0533440231
 40
0.1095469655
 40
0.1691887665
 40
0.2324853322
 40
0.3679987391
 40
0.5101117299
 40
0.6498836108
 40
0.779221135
 40
0.8387828776
 40
0.8948654775
 40
0.9481769832
 40
1.0
 40
1.0
 40
1.0
 40
1.0
 10
17.6388138175
 20
13.3706213669
 30
0.0
 10
17.6375623031
 20
13.3720651851
 30
0.0
 10
17.6346030122
 20
13.3747094727
 30
0.0
 10
17.6292486485
 20
13.3776409556
 30
0.0
 10
17.6230747759
 20
13.3795326796
 30
0.0
 10
17.6138417618
 20
13.3806263342
 30
0.0
 10
17.6015305827
 20
13.3790883344
 30
0.0
 10
17.5875715204
 20
13.3732902883
 30
0.0
 10
17.5757386344
 20
13.3642372702
 30
0.0
 10
17.568663193
 20
13.3545419375
 30
0.0
 10
17.5655853841
 20
13.3462709511
 30
0.0
 10
17.5646570556
 20
13.3402416306
 30
0.0
 10
17.5651041002
 20
13.3344306667
 30
0.0
 10
17.5663352468
 20
13.3308202608
 30
0.0
 10
17.5671562479
 20
13.3291554404
 30
0.0
  0
SPLINE
  5
3B4
100
AcDbEntity
  8
02___PRT_ALL_AXES
100
AcDbSpline
 62
7
  6
BYLAYER
 70
0
 71
3
 72
12
 73
8
 74
0
 42
0.0000001
 43
0.0000001
 44
0.0000000001
 40
0.0
 40
0.0
 40
0.0
 40
0.0
 40
0.28537213
 40
0.5482032364
 40
0.783336304
 40
0.8930741235
 40
1.0
 40
1.0
 40
1.0
 40
1.0
 10
17.9240187409
 20
13.7970655042
 30
0.0
 10
17.9201773051
 20
13.7944784271
 30
0.0
 10
17.9133657315
 20
13.7885699194
 30
0.0
 10
17.9063031356
 20
13.7777822409
 30
0.0
 10
17.9039484499
 20
13.7679112204
 30
0.0
 10
17.9046824158
 20
13.7605575221
 30
0.0
 10
17.9058505102
 20
13.7571986949
 30
0.0
 10
17.9066138222
 20
13.7556402638
 30
0.0
  0
SPLINE
  5
3B5
100
AcDbEntity
  8
02___PRT_ALL_AXES
100
AcDbSpline
 62
7
  6
BYLAYER
 70
0
 71
3
 72
13
 73
9
 74
0
 42
0.0000001
 43
0.0000001
 44
0.0000000001
 40
0.0
 40
0.0
 40
0.0
 40
0.0
 40
0.1031957305
 40
0.210660594
 40
0.3254562861
 40
0.4488597387
 40
0.717263436
 40
1.0
 40
1.0
 40
1.0
 40
1.0
 10
17.1951136609
 20
13.5425275718
 30
0.0
 10
17.194140997
 20
13.5445134304
 30
0.0
 10
17.1915041731
 20
13.5482783712
 30
0.0
 10
17.1859415354
 20
13.5526266096
 30
0.0
 10
17.1790566087
 20
13.5555546439
 30
0.0
 10
17.1682959744
 20
13.5574723559
 30
0.0
 10
17.1536258648
 20
13.5557155866
 30
0.0
 10
17.14272371
 20
13.5506445555
 30
0.0
 10
17.1376985975
 20
13.5472603122
 30
0.0
  0
LINE
  5
3B6
100
AcDbEntity
  8
0
100
AcDbLine
 62
7
  6
BYLAYER
 10
18.0703407929
 20
13.0460206745
 11
18.0712118251
 21
13.0429711867
  0
SPLINE
  5
3B7
100
AcDbEntity
  8
0
100
AcDbSpline
 62
7
  6
BYLAYER
 70
0
 71
3
 72
10
 73
6
 74
0
 42
0.0000001
 43
0.0000001
 44
0.0000000001
 40
0.0
 40
0.0
 40
0.0
 40
0.0
 40
0.2657450255
 40
0.5178430712
 40
1.0
 40
1.0
 40
1.0
 40
1.0
 10
17.9624362191
 20
13.2199957319
 30
0.0
 10
17.961790061
 20
13.221370892
 30
0.0
 10
17.9603703076
 20
13.2239753201
 30
0.0
 10
17.9572950686
 20
13.2287972395
 30
0.0
 10
17.9547941846
 20
13.2321762004
 30
0.0
 10
17.9530883999
 20
13.234341825
 30
0.0
  0
SPLINE
  5
3B8
100
AcDbEntity
  8
02___PRT_ALL_AXES
100
AcDbSpline
 62
7
  6
BYLAYER
 70
0
 71
3
 72
21
 73
17
 74
0
 42
0.0000001
 43
0.0000001
 44
0.0000000001
 40
0.0
 40
0.0
 40
0.0
 40
0.0
 40
0.0801866115
 40
0.1343893283
 40
0.1980477235
 40
0.2699655022
 40
0.348329046
 40
0.5151616757
 40
0.5987392803
 40
0.6790203582
 40
0.7536786352
 40
0.820721595
 40
0.8786760147
 40
0.9269360318
 40
0.9663150211
 40
1.0
 40
1.0
 40
1.0
 40
1.0
 10
17.9645481318
 20
12.5729322175
 30
0.0
 10
17.9673538824
 20
12.5737615551
 30
0.0
 10
17.9711589795
 20
12.577543171
 30
0.0
 10
17.9746539463
 20
12.5837909546
 30
0.0
 10
17.9771711588
 20
12.5902897231
 30
0.0
 10
17.979158232
 20
12.5978436069
 30
0.0
 10
17.9810849401
 20
12.6092668315
 30
0.0
 10
17.9816638878
 20
12.6213021368
 30
0.0
 10
17.980956862
 20
12.6333548113
 30
0.0
 10
17.9797791422
 20
12.6419876113
 30
0.0
 10
17.9780033481
 20
12.6499015352
 30
0.0
 10
17.975692264
 20
12.656826111
 30
0.0
 10
17.9729222962
 20
12.6625352984
 30
0.0
 10
17.9697696879
 20
12.6668573172
 30
0.0
 10
17.966260464
 20
12.6696850509
 30
0.0
 10
17.9635721463
 20
12.6703914134
 30
0.0
 10
17.9623430947
 20
12.6703875591
 30
0.0
  0
SPLINE
  5
3B9
100
AcDbEntity
  8
0
100
AcDbSpline
 62
7
  6
BYLAYER
 70
0
 71
3
 72
24
 73
20
 74
0
 42
0.0000001
 43
0.0000001
 44
0.0000000001
 40
0.0
 40
0.0
 40
0.0
 40
0.0
 40
0.0154323948
 40
0.0312783084
 40
0.0655589438
 40
0.1051518584
 40
0.1511690561
 40
0.2039161789
 40
0.2631601593
 40
0.3283028828
 40
0.3984889488
 40
0.4726792946
 40
0.5497049292
 40
0.6283104566
 40
0.707193763
 40
0.7850469311
 40
0.8605824112
 40
0.9326108318
 40
1.0
 40
1.0
 40
1.0
 40
1.0
 10
18.1454475243
 20
12.7650650559
 30
0.0
 10
18.1479814189
 20
12.7650642729
 30
0.0
 10
18.1531283689
 20
12.7645931197
 30
0.0
 10
18.1635557162
 20
12.761732699
 30
0.0
 10
18.1765466743
 20
12.7543007783
 30
0.0
 10
18.1907651289
 20
12.7404914392
 30
0.0
 10
18.2039970955
 20
12.7219105506
 30
0.0
 10
18.2160617526
 20
12.698874506
 30
0.0
 10
18.2267702195
 20
12.6717865815
 30
0.0
 10
18.2359215849
 20
12.6411433692
 30
0.0
 10
18.243339738
 20
12.6075238038
 30
0.0
 10
18.2488780834
 20
12.5715725094
 30
0.0
 10
18.2524265279
 20
12.533984146
 30
0.0
 10
18.2539140958
 20
12.4954880214
 30
0.0
 10
18.2533110964
 20
12.456832111
 30
0.0
 10
18.2506289768
 20
12.4187694761
 30
0.0
 10
18.2459233099
 20
12.3820355567
 30
0.0
 10
18.2392850186
 20
12.3473485948
 30
0.0
 10
18.2334395309
 20
12.325189609
 30
0.0
 10
18.2301726644
 20
12.3146180251
 30
0.0
  0
SPLINE
  5
3BA
100
AcDbEntity
  8
02___PRT_ALL_AXES
100
AcDbSpline
 62
7
  6
BYLAYER
 70
0
 71
3
 72
14
 73
10
 74
0
 42
0.0000001
 43
0.0000001
 44
0.0000000001
 40
0.0
 40
0.0
 40
0.0
 40
0.0
 40
0.2699413971
 40
0.409422653
 40
0.5451038101
 40
0.6729232389
 40
0.7905540687
 40
0.898363335
 40
1.0
 40
1.0
 40
1.0
 40
1.0
 10
17.2449854096
 20
13.806625135
 30
0.0
 10
17.2377350786
 20
13.806625135
 30
0.0
 10
17.2266313737
 20
13.8039996379
 30
0.0
 10
17.2138389571
 20
13.796781527
 30
0.0
 10
17.2055652525
 20
13.7896740415
 30
0.0
 10
17.1993526826
 20
13.7814272052
 30
0.0
 10
17.1956447973
 20
13.7725637727
 30
0.0
 10
17.1947857205
 20
13.7636670309
 30
0.0
 10
17.1962903434
 20
13.7580865589
 30
0.0
 10
17.197492077
 20
13.7556354539
 30
0.0
  0
SPLINE
  5
3BB
100
AcDbEntity
  8
02___PRT_ALL_AXES
100
AcDbSpline
 62
7
  6
BYLAYER
 70
0
 71
3
 72
17
 73
13
 74
0
 42
0.0000001
 43
0.0000001
 44
0.0000000001
 40
0.0
 40
0.0
 40
0.0
 40
0.0
 40
0.050785639
 40
0.1027115068
 40
0.2130418717
 40
0.3354275365
 40
0.4686469943
 40
0.6079206891
 40
0.67794138
 40
0.747024586
 40
0.879108976
 40
1.0
 40
1.0
 40
1.0
 40
1.0
 10
17.3482176503
 20
13.3659053861
 30
0.0
 10
17.3475134274
 20
13.3673379337
 30
0.0
 10
17.3457600466
 20
13.3700855636
 30
0.0
 10
17.3409976175
 20
13.3748566916
 30
0.0
 10
17.3328361341
 20
13.3790528632
 30
0.0
 10
17.3212943862
 20
13.3807187047
 30
0.0
 10
17.3088511341
 20
13.379180918
 30
0.0
 10
17.2986716497
 20
13.3753750311
 30
0.0
 10
17.2910956794
 20
13.3709641182
 30
0.0
 10
17.2842628132
 20
13.3658406677
 30
0.0
 10
17.2772762769
 20
13.3583704075
 30
0.0
 10
17.2735602108
 20
13.3511728058
 30
0.0
 10
17.2724383233
 20
13.3475423765
 30
0.0
  0
SPLINE
  5
3BC
100
AcDbEntity
  8
0
100
AcDbSpline
 62
7
  6
BYLAYER
 70
0
 71
3
 72
23
 73
19
 74
0
 42
0.0000001
 43
0.0000001
 44
0.0000000001
 40
0.0
 40
0.0
 40
0.0
 40
0.0
 40
0.085066907
 40
0.1637576737
 40
0.235980359
 40
0.3018404395
 40
0.3617039212
 40
0.4162753609
 40
0.4666626235
 40
0.5144134469
 40
0.5614197343
 40
0.6096839404
 40
0.6610258446
 40
0.7168835786
 40
0.7782473625
 40
0.8457331656
 40
0.9196556745
 40
1.0
 40
1.0
 40
1.0
 40
1.0
 10
18.0567970365
 20
11.9315938429
 30
0.0
 10
18.050680208
 20
11.9173694642
 30
0.0
 10
18.0380598074
 20
11.8903361726
 30
0.0
 10
18.0170496425
 20
11.852822159
 30
0.0
 10
17.9948276754
 20
11.8201468419
 30
0.0
 10
17.9715415517
 20
11.7925516613
 30
0.0
 10
17.9473298465
 20
11.7702456498
 30
0.0
 10
17.9223261012
 20
11.753416922
 30
0.0
 10
17.8966651552
 20
11.7422724331
 30
0.0
 10
17.8705527393
 20
11.7370188473
 30
0.0
 10
17.8443028367
 20
11.7378052873
 30
0.0
 10
17.818282293
 20
11.7446078012
 30
0.0
 10
17.7927755027
 20
11.7572475841
 30
0.0
 10
17.7679663048
 20
11.775517684
 30
0.0
 10
17.7439817477
 20
11.7992136994
 30
0.0
 10
17.7209552444
 20
11.8281508261
 30
0.0
 10
17.6990367766
 20
11.862107309
 30
0.0
 10
17.685798901
 20
11.8869066395
 30
0.0
 10
17.6793563098
 20
11.90003526
 30
0.0
  0
SPLINE
  5
3BD
100
AcDbEntity
  8
0
100
AcDbSpline
 62
7
  6
BYLAYER
 70
0
 71
3
 72
37
 73
33
 74
0
 42
0.0000001
 43
0.0000001
 44
0.0000000001
 40
0.0
 40
0.0
 40
0.0
 40
0.0
 40
0.1246641049
 40
0.1857005672
 40
0.2457593986
 40
0.3047185456
 40
0.3624057117
 40
0.4185646194
 40
0.4727831214
 40
0.5243219726
 40
0.5486602472
 40
0.5716028393
 40
0.5823640021
 40
0.5924860746
 40
0.6017700011
 40
0.609924065
 40
0.6165702538
 40
0.6195639982
 40
0.6230997779
 40
0.6286442188
 40
0.6373550076
 40
0.6482590229
 40
0.6601473487
 40
0.684200431
 40
0.7073966029
 40
0.7300032355
 40
0.7520928048
 40
0.7951833431
 40
0.8372464869
 40
0.8785985075
 40
0.9194307745
 40
1.0
 40
1.0
 40
1.0
 40
1.0
 10
18.0765310475
 20
13.047663505
 30
0.0
 10
18.0758467922
 20
13.0494393287
 30
0.0
 10
18.0748063901
 20
13.0520765853
 30
0.0
 10
18.0733785379
 20
13.0555460083
 30
0.0
 10
18.0723047832
 20
13.058076337
 30
0.0
 10
18.0712202918
 20
13.0605463609
 30
0.0
 10
18.0701247437
 20
13.0629462292
 30
0.0
 10
18.0690182672
 20
13.0652612127
 30
0.0
 10
18.0679016351
 20
13.0674666093
 30
0.0
 10
18.0669491026
 20
13.0692100746
 30
0.0
 10
18.066172307
 20
13.0705035145
 30
0.0
 10
18.0656867677
 20
13.0712451535
 30
0.0
 10
18.0652927278
 20
13.0717862078
 30
0.0
 10
18.0650047348
 20
13.0721453798
 30
0.0
 10
18.064718239
 20
13.0724558852
 30
0.0
 10
18.0644403326
 20
13.0726929923
 30
0.0
 10
18.0641878545
 20
13.0728256076
 30
0.0
 10
18.0639793208
 20
13.0728017725
 30
0.0
 10
18.063831548
 20
13.0726748048
 30
0.0
 10
18.0637434745
 20
13.0724099879
 30
0.0
 10
18.0636989298
 20
13.072029225
 30
0.0
 10
18.0636939884
 20
13.0715469119
 30
0.0
 10
18.0637498124
 20
13.0708336921
 30
0.0
 10
18.0638770026
 20
13.0699392515
 30
0.0
 10
18.0640670529
 20
13.0688898594
 30
0.0
 10
18.0642783596
 20
13.0678750975
 30
0.0
 10
18.0645732762
 20
13.0665677882
 30
0.0
 10
18.0649629485
 20
13.0649775614
 30
0.0
 10
18.0654504373
 20
13.0631088621
 30
0.0
 10
18.0659479972
 20
13.0612785289
 30
0.0
 10
18.0666174066
 20
13.0588858381
 30
0.0
 10
18.0671312684
 20
13.0571051846
 30
0.0
 10
18.0674760677
 20
13.0559245536
 30
0.0
  0
SPLINE
  5
3BE
100
AcDbEntity
  8
0
100
AcDbSpline
 62
7
  6
BYLAYER
 70
0
 71
3
 72
18
 73
14
 74
0
 42
0.0000001
 43
0.0000001
 44
0.0000000001
 40
0.0
 40
0.0
 40
0.0
 40
0.0
 40
0.1114969932
 40
0.1637632707
 40
0.2147106113
 40
0.2652554231
 40
0.316341688
 40
0.3688775189
 40
0.4236805411
 40
0.5425538522
 40
0.6771101081
 40
0.8294062911
 40
1.0
 40
1.0
 40
1.0
 40
1.0
 10
17.9243467107
 20
11.7044755416
 30
0.0
 10
17.9132081346
 20
11.696974003
 30
0.0
 10
17.8955619368
 20
11.6875803305
 30
0.0
 10
17.8706578397
 20
11.6803553642
 30
0.0
 10
17.8522469497
 20
11.6777890491
 30
0.0
 10
17.8338026304
 20
11.6779972045
 30
0.0
 10
17.8154060462
 20
11.6809680408
 30
0.0
 10
17.797137097
 20
11.6866859503
 30
0.0
 10
17.7723797332
 20
11.6982270908
 30
0.0
 10
17.741933487
 20
11.7200331314
 30
0.0
 10
17.7081088964
 20
11.7555849125
 30
0.0
 10
17.676232604
 20
11.8007093761
 30
0.0
 10
17.6575431713
 20
11.8349033564
 30
0.0
 10
17.648491369
 20
11.8533489901
 30
0.0
  0
SPLINE
  5
3BF
100
AcDbEntity
  8
02___PRT_ALL_AXES
100
AcDbSpline
 62
7
  6
BYLAYER
 70
0
 71
3
 72
18
 73
14
 74
0
 42
0.0000001
 43
0.0000001
 44
0.0000000001
 40
0.0
 40
0.0
 40
0.0
 40
0.0
 40
0.1393852211
 40
0.2927819298
 40
0.4502785
 40
0.60149873
 40
0.736802521
 40
0.7960744217
 40
0.8488586442
 40
0.894900179
 40
0.9345235345
 40
0.9688231352
 40
1.0
 40
1.0
 40
1.0
 40
1.0
 10
17.9939466153
 20
12.2193857071
 30
0.0
 10
17.9951352058
 20
12.2232319875
 30
0.0
 10
17.9969519505
 20
12.2315246243
 30
0.0
 10
17.9982014162
 20
12.2444926237
 30
0.0
 10
17.9980525243
 20
12.2578660442
 30
0.0
 10
17.9965156405
 20
12.2706222232
 30
0.0
 10
17.9940936575
 20
12.2803544217
 30
0.0
 10
17.9914655102
 20
12.2870086287
 30
0.0
 10
17.9893430268
 20
12.2910638732
 30
0.0
 10
17.9870148576
 20
12.2943343452
 30
0.0
 10
17.9845107009
 20
12.2967663322
 30
0.0
 10
17.9818437299
 20
12.2982991587
 30
0.0
 10
17.9799405645
 20
12.2986631103
 30
0.0
 10
17.9790401104
 20
12.2986642648
 30
0.0
  0
SPLINE
  5
3C0
100
AcDbEntity
  8
0
100
AcDbSpline
 62
7
  6
BYLAYER
 70
0
 71
3
 72
11
 73
7
 74
0
 42
0.0000001
 43
0.0000001
 44
0.0000000001
 40
0.0
 40
0.0
 40
0.0
 40
0.0
 40
0.2643796584
 40
0.5171042956
 40
0.7609087708
 40
1.0
 40
1.0
 40
1.0
 40
1.0
 10
17.3461835207
 20
13.6490839178
 30
0.0
 10
17.3435736493
 20
13.6406383711
 30
0.0
 10
17.3397521543
 20
13.6236793107
 30
0.0
 10
17.3385991392
 20
13.5981220994
 30
0.0
 10
17.3422369546
 20
13.5736390865
 30
0.0
 10
17.3478488229
 20
13.558355096
 30
0.0
 10
17.3513711062
 20
13.5511788235
 30
0.0
  0
SPLINE
  5
3C1
100
AcDbEntity
  8
02___PRT_ALL_AXES
100
AcDbSpline
 62
7
  6
BYLAYER
 70
0
 71
3
 72
15
 73
11
 74
0
 42
0.0000001
 43
0.0000001
 44
0.0000000001
 40
0.0
 40
0.0
 40
0.0
 40
0.0
 40
0.1734563934
 40
0.3392725583
 40
0.4926163165
 40
0.6299720811
 40
0.7487638761
 40
0.8480145523
 40
0.9296139082
 40
1.0
 40
1.0
 40
1.0
 40
1.0
 10
18.1120871733
 20
12.0227724106
 30
0.0
 10
18.111956956
 20
12.0256774621
 30
0.0
 10
18.1115014137
 20
12.0313529684
 30
0.0
 10
18.1102247526
 20
12.0395206971
 30
0.0
 10
18.1084014031
 20
12.0469650765
 30
0.0
 10
18.10609346
 20
12.0534458986
 30
0.0
 10
18.1033753135
 20
12.0587732326
 30
0.0
 10
18.1003071596
 20
12.0627972511
 30
0.0
 10
18.0969153003
 20
12.0654144361
 30
0.0
 10
18.0943485241
 20
12.066071955
 30
0.0
 10
18.0931685133
 20
12.0660706935
 30
0.0
  0
SPLINE
  5
3C2
100
AcDbEntity
  8
02___PRT_ALL_AXES
100
AcDbSpline
 62
7
  6
BYLAYER
 70
0
 71
3
 72
10
 73
6
 74
0
 42
0.0000001
 43
0.0000001
 44
0.0000000001
 40
0.0
 40
0.0
 40
0.0
 40
0.0
 40
0.5161344746
 40
0.7604943016
 40
1.0
 40
1.0
 40
1.0
 40
1.0
 10
17.2724383233
 20
13.3475423765
 30
0.0
 10
17.2714845762
 20
13.3444560498
 30
0.0
 10
17.2707701586
 20
13.3396144457
 30
0.0
 10
17.2716999284
 20
13.3333924051
 30
0.0
 10
17.2727527767
 20
13.3305246047
 30
0.0
 10
17.2734140792
 20
13.3291793669
 30
0.0
  0
SPLINE
  5
3C3
100
AcDbEntity
  8
02___PRT_ALL_AXES
100
AcDbSpline
 62
7
  6
BYLAYER
 70
0
 71
3
 72
11
 73
7
 74
0
 42
0.0000001
 43
0.0000001
 44
0.0000000001
 40
0.0
 40
0.0
 40
0.0
 40
0.0
 40
0.3156806228
 40
0.5821591739
 40
0.8046012074
 40
1.0
 40
1.0
 40
1.0
 40
1.0
 10
18.2497646694
 20
12.0982657305
 30
0.0
 10
18.2489933718
 20
12.0998374697
 30
0.0
 10
18.2473881478
 20
12.1026555031
 30
0.0
 10
18.244500275
 20
12.1061001382
 30
0.0
 10
18.2413442033
 20
12.1083172857
 30
0.0
 10
18.2390089255
 20
12.1088587369
 30
0.0
 10
18.2379252291
 20
12.1088575663
 30
0.0
  0
SPLINE
  5
3C4
100
AcDbEntity
  8
0
100
AcDbSpline
 62
7
  6
BYLAYER
 70
0
 71
3
 72
12
 73
8
 74
0
 42
0.0000001
 43
0.0000001
 44
0.0000000001
 40
0.0
 40
0.0
 40
0.0
 40
0.0
 40
0.279885202
 40
0.5429819278
 40
0.7842034481
 40
0.895490064
 40
1.0
 40
1.0
 40
1.0
 40
1.0
 10
17.5174899838
 20
12.2786181312
 30
0.0
 10
17.5247433325
 20
12.2376196672
 30
0.0
 10
17.541350384
 20
12.1585059928
 30
0.0
 10
17.572339102
 20
12.0459715141
 30
0.0
 10
17.6023184789
 20
11.9593527989
 30
0.0
 10
17.628199029
 20
11.896470813
 30
0.0
 10
17.6416423918
 20
11.8673057382
 30
0.0
 10
17.648491369
 20
11.8533489901
 30
0.0
  0
SPLINE
  5
3C5
100
AcDbEntity
  8
02___PRT_ALL_AXES
100
AcDbSpline
 62
7
  6
BYLAYER
 70
0
 71
3
 72
21
 73
17
 74
0
 42
0.0000001
 43
0.0000001
 44
0.0000000001
 40
0.0
 40
0.0
 40
0.0
 40
0.0
 40
0.0801866115
 40
0.1343893283
 40
0.1980477235
 40
0.2699655022
 40
0.348329046
 40
0.5151616757
 40
0.5987392803
 40
0.6790203582
 40
0.7536786352
 40
0.820721595
 40
0.8786760147
 40
0.9269360318
 40
0.9663150211
 40
1.0
 40
1.0
 40
1.0
 40
1.0
 10
18.3306835802
 20
12.3045063099
 30
0.0
 10
18.3334893308
 20
12.3053356475
 30
0.0
 10
18.3372944279
 20
12.3091172634
 30
0.0
 10
18.3407893947
 20
12.315365047
 30
0.0
 10
18.3433066073
 20
12.3218638155
 30
0.0
 10
18.3452936804
 20
12.3294176993
 30
0.0
 10
18.3472203886
 20
12.3408409239
 30
0.0
 10
18.3477993362
 20
12.3528762291
 30
0.0
 10
18.3470923104
 20
12.3649289036
 30
0.0
 10
18.3459145907
 20
12.3735617036
 30
0.0
 10
18.3441387965
 20
12.3814756275
 30
0.0
 10
18.3418277124
 20
12.3884002034
 30
0.0
 10
18.3390577446
 20
12.3941093907
 30
0.0
 10
18.3359051363
 20
12.3984314095
 30
0.0
 10
18.3323959125
 20
12.4012591432
 30
0.0
 10
18.3297075947
 20
12.4019655058
 30
0.0
 10
18.3284785432
 20
12.4019616515
 30
0.0
  0
SPLINE
  5
3C6
100
AcDbEntity
  8
02___PRT_ALL_AXES
100
AcDbSpline
 62
7
  6
BYLAYER
 70
0
 71
3
 72
11
 73
7
 74
0
 42
0.0000001
 43
0.0000001
 44
0.0000000001
 40
0.0
 40
0.0
 40
0.0
 40
0.0
 40
0.2268632804
 40
0.4650145788
 40
0.722100556
 40
1.0
 40
1.0
 40
1.0
 40
1.0
 10
17.9042354061
 20
13.5425323817
 30
0.0
 10
17.9031570035
 20
13.5447319357
 30
0.0
 10
17.9001395866
 20
13.5488842584
 30
0.0
 10
17.8936847614
 20
13.5534610486
 30
0.0
 10
17.8857172805
 20
13.556244336
 30
0.0
 10
17.8799150523
 20
13.556819943
 30
0.0
 10
17.8769142671
 20
13.556819943
 30
0.0
  0
SPLINE
  5
3C7
100
AcDbEntity
  8
02___PRT_ALL_AXES
100
AcDbSpline
 62
7
  6
BYLAYER
 70
0
 71
3
 72
19
 73
15
 74
0
 42
0.0000001
 43
0.0000001
 44
0.0000000001
 40
0.0
 40
0.0
 40
0.0
 40
0.0
 40
0.0533440231
 40
0.1095469655
 40
0.1691887665
 40
0.2324853322
 40
0.3679987391
 40
0.5101117299
 40
0.6498836108
 40
0.779221135
 40
0.8387828776
 40
0.8948654775
 40
0.9481769832
 40
1.0
 40
1.0
 40
1.0
 40
1.0
 10
17.5314516001
 20
13.9737044495
 30
0.0
 10
17.5302000857
 20
13.9751482677
 30
0.0
 10
17.5272407947
 20
13.9777925553
 30
0.0
 10
17.5218864311
 20
13.9807240382
 30
0.0
 10
17.5157125585
 20
13.9826157622
 30
0.0
 10
17.5064795444
 20
13.9837094168
 30
0.0
 10
17.4941683653
 20
13.982171417
 30
0.0
 10
17.480209303
 20
13.9763733709
 30
0.0
 10
17.468376417
 20
13.9673203528
 30
0.0
 10
17.4613009755
 20
13.95762502
 30
0.0
 10
17.4582231666
 20
13.9493540336
 30
0.0
 10
17.4572948382
 20
13.9433247132
 30
0.0
 10
17.4577418828
 20
13.9375137493
 30
0.0
 10
17.4589730294
 20
13.9339033434
 30
0.0
 10
17.4597940305
 20
13.9322385229
 30
0.0
  0
SPLINE
  5
3C8
100
AcDbEntity
  8
0
100
AcDbSpline
 62
7
  6
BYLAYER
 70
0
 71
3
 72
9
 73
5
 74
0
 42
0.0000001
 43
0.0000001
 44
0.0000000001
 40
0.0
 40
0.0
 40
0.0
 40
0.0
 40
0.2413018488
 40
1.0
 40
1.0
 40
1.0
 40
1.0
 10
16.5943059147
 20
11.6391271363
 30
0.0
 10
16.5938356264
 20
11.6394864671
 30
0.0
 10
16.5918126136
 20
11.6408780015
 30
0.0
 10
16.5895272691
 20
11.6418718139
 30
0.0
 10
16.587745717
 20
11.642409406
 30
0.0
  0
SPLINE
  5
3C9
100
AcDbEntity
  8
0
100
AcDbSpline
 62
7
  6
BYLAYER
 70
0
 71
3
 72
9
 73
5
 74
0
 42
0.0000001
 43
0.0000001
 44
0.0000000001
 40
0.0
 40
0.0
 40
0.0
 40
0.0
 40
0.2415462727
 40
1.0
 40
1.0
 40
1.0
 40
1.0
 10
16.587745717
 20
11.642409406
 30
0.0
 10
16.5871180658
 20
11.6425988028
 30
0.0
 10
16.5844875716
 20
11.6432752098
 30
0.0
 10
16.5817574206
 20
11.643540399
 30
0.0
 10
16.579698827
 20
11.643540399
 30
0.0
  0
SPLINE
  5
3CA
100
AcDbEntity
  8
0
100
AcDbSpline
 62
7
  6
BYLAYER
 70
0
 71
3
 72
11
 73
7
 74
0
 42
0.0000001
 43
0.0000001
 44
0.0000000001
 40
0.0
 40
0.0
 40
0.0
 40
0.0
 40
0.2268727775
 40
0.4649931183
 40
0.7221570508
 40
1.0
 40
1.0
 40
1.0
 40
1.0
 10
16.5396315712
 20
11.6205662546
 30
0.0
 10
16.5403946908
 20
11.6190083547
 30
0.0
 10
16.5425315002
 20
11.6160682195
 30
0.0
 10
16.5471016121
 20
11.6128255861
 30
0.0
 10
16.5527439551
 20
11.6108555257
 30
0.0
 10
16.5568526388
 20
11.6104469885
 30
0.0
 10
16.5589771412
 20
11.6104469885
 30
0.0
  0
SPLINE
  5
3CB
100
AcDbEntity
  8
0
100
AcDbSpline
 62
7
  6
BYLAYER
 70
0
 71
3
 72
14
 73
10
 74
0
 42
0.0000001
 43
0.0000001
 44
0.0000000001
 40
0.0
 40
0.0
 40
0.0
 40
0.0
 40
0.2915003628
 40
0.4244867615
 40
0.5498613636
 40
0.6686579236
 40
0.7821977603
 40
0.8920504402
 40
1.0
 40
1.0
 40
1.0
 40
1.0
 10
16.8920218506
 20
13.1742526599
 30
0.0
 10
16.8825327216
 20
13.1861025656
 30
0.0
 10
16.8675406632
 20
13.2025220621
 30
0.0
 10
16.8454867819
 20
13.2208455587
 30
0.0
 10
16.8291584273
 20
13.2318326407
 30
0.0
 10
16.8125845357
 20
13.2404343612
 30
0.0
 10
16.7958153609
 20
13.2466171473
 30
0.0
 10
16.7789113114
 20
13.2503439365
 30
0.0
 10
16.7675516105
 20
13.2511752362
 30
0.0
 10
16.7619297098
 20
13.2511753285
 30
0.0
  0
SPLINE
  5
3CC
100
AcDbEntity
  8
0
100
AcDbSpline
 62
7
  6
BYLAYER
 70
0
 71
3
 72
11
 73
7
 74
0
 42
0.0000001
 43
0.0000001
 44
0.0000000001
 40
0.0
 40
0.0
 40
0.0
 40
0.0
 40
0.2817789145
 40
0.5376429392
 40
0.7740859886
 40
1.0
 40
1.0
 40
1.0
 40
1.0
 10
17.0249631649
 20
13.1097675236
 30
0.0
 10
17.0178067459
 20
13.1169552017
 30
0.0
 10
17.0032344311
 20
13.1298180904
 30
0.0
 10
16.979431653
 20
13.1445993396
 30
0.0
 10
16.9550024526
 20
13.1536389144
 30
0.0
 10
16.9382982245
 20
13.1556877747
 30
0.0
 10
16.9301662893
 20
13.155689738
 30
0.0
  0
SPLINE
  5
3CD
100
AcDbEntity
  8
0
100
AcDbSpline
 62
7
  6
BYLAYER
 70
0
 71
3
 72
11
 73
7
 74
0
 42
0.0000001
 43
0.0000001
 44
0.0000000001
 40
0.0
 40
0.0
 40
0.0
 40
0.0
 40
0.2739587118
 40
0.5322646543
 40
0.774030566
 40
1.0
 40
1.0
 40
1.0
 40
1.0
 10
14.6956364601
 20
12.9083840823
 30
0.0
 10
14.7010442262
 20
12.9258836195
 30
0.0
 10
14.7125100617
 20
12.9595982561
 30
0.0
 10
14.7323427767
 20
13.0074424552
 30
0.0
 10
14.7543172184
 20
13.0507809054
 30
0.0
 10
14.7709447908
 20
13.0773386781
 30
0.0
 10
14.7796687565
 20
13.089672899
 30
0.0
  0
SPLINE
  5
3CE
100
AcDbEntity
  8
0
100
AcDbSpline
 62
7
  6
BYLAYER
 70
0
 71
3
 72
21
 73
17
 74
0
 42
0.0000001
 43
0.0000001
 44
0.0000000001
 40
0.0
 40
0.0
 40
0.0
 40
0.0
 40
0.0469103077
 40
0.0973700008
 40
0.1514775052
 40
0.209114359
 40
0.2700026692
 40
0.3337438361
 40
0.3998438803
 40
0.4677394262
 40
0.6064127992
 40
0.7446426997
 40
0.8119953021
 40
0.8773471765
 40
0.9401884327
 40
1.0
 40
1.0
 40
1.0
 40
1.0
 10
14.7787449964
 20
11.8862121145
 30
0.0
 10
14.7693022328
 20
11.899678606
 30
0.0
 10
14.75138461
 20
11.9288287126
 30
0.0
 10
14.7279937715
 20
11.9765766692
 30
0.0
 10
14.7070918027
 20
12.0295232377
 30
0.0
 10
14.6887395852
 20
12.0872427759
 30
0.0
 10
14.673029199
 20
12.1492209389
 30
0.0
 10
14.6600761429
 20
12.2148554729
 30
0.0
 10
14.6499902891
 20
12.2834733576
 30
0.0
 10
14.640428876
 20
12.3786223419
 30
0.0
 10
14.636244334
 20
12.4995948443
 30
0.0
 10
14.6421458955
 20
12.6203080581
 30
0.0
 10
14.6530880427
 20
12.7146966531
 30
0.0
 10
14.6641590483
 20
12.7823858177
 30
0.0
 10
14.6780634639
 20
12.8468475932
 30
0.0
 10
14.6894449534
 20
12.8883483592
 30
0.0
 10
14.6956364601
 20
12.9083840823
 30
0.0
  0
SPLINE
  5
3CF
100
AcDbEntity
  8
0
100
AcDbSpline
 62
7
  6
BYLAYER
 70
0
 71
3
 72
11
 73
7
 74
0
 42
0.0000001
 43
0.0000001
 44
0.0000000001
 40
0.0
 40
0.0
 40
0.0
 40
0.0
 40
0.2259329261
 40
0.4623781759
 40
0.7182414732
 40
1.0
 40
1.0
 40
1.0
 40
1.0
 10
16.9301343489
 20
11.8188853036
 30
0.0
 10
16.9382651702
 20
11.8188834231
 30
0.0
 10
16.954966808
 20
11.82092941
 30
0.0
 10
16.9793955984
 20
11.8299554094
 30
0.0
 10
17.0031945049
 20
11.8447302459
 30
0.0
 10
17.0177687283
 20
11.857583121
 30
0.0
 10
17.0249242354
 20
11.8647675128
 30
0.0
  0
SPLINE
  5
3D0
100
AcDbEntity
  8
0
100
AcDbSpline
 62
7
  6
BYLAYER
 70
0
 71
3
 72
9
 73
5
 74
0
 42
0.0000001
 43
0.0000001
 44
0.0000000001
 40
0.0
 40
0.0
 40
0.0
 40
0.0
 40
0.521075301
 40
1.0
 40
1.0
 40
1.0
 40
1.0
 10
16.9176458613
 20
11.8188447526
 30
0.0
 10
16.910535912
 20
11.8125885812
 30
0.0
 10
16.8960755247
 20
11.8014565547
 30
0.0
 10
16.8799341933
 20
11.7928551645
 30
0.0
 10
16.8718818856
 20
11.789549444
 30
0.0
  0
SPLINE
  5
3D1
100
AcDbEntity
  8
0
100
AcDbSpline
 62
7
  6
BYLAYER
 70
0
 71
3
 72
9
 73
5
 74
0
 42
0.0000001
 43
0.0000001
 44
0.0000000001
 40
0.0
 40
0.0
 40
0.0
 40
0.0
 40
0.5083834383
 40
1.0
 40
1.0
 40
1.0
 40
1.0
 10
16.8718818856
 20
11.789549444
 30
0.0
 10
16.8648994592
 20
11.7866829428
 30
0.0
 10
16.8506327524
 20
11.7822292822
 30
0.0
 10
16.8357485008
 20
11.7806913351
 30
0.0
 10
16.8284495163
 20
11.7806910767
 30
0.0
  0
SPLINE
  5
3D2
100
AcDbEntity
  8
0
100
AcDbSpline
 62
7
  6
BYLAYER
 70
0
 71
3
 72
11
 73
7
 74
0
 42
0.0000001
 43
0.0000001
 44
0.0000000001
 40
0.0
 40
0.0
 40
0.0
 40
0.0
 40
0.2303967439
 40
0.4692158413
 40
0.7238405141
 40
1.0
 40
1.0
 40
1.0
 40
1.0
 10
16.8284495163
 20
13.1938841626
 30
0.0
 10
16.8360213953
 20
13.1938847543
 30
0.0
 10
16.8514874769
 20
13.1922205447
 30
0.0
 10
16.8742566579
 20
13.1848432411
 30
0.0
 10
16.8965856599
 20
13.1727055625
 30
0.0
 10
16.9104638539
 20
13.1620218089
 30
0.0
 10
16.9172908979
 20
13.1560416317
 30
0.0
  0
SPLINE
  5
3D3
100
AcDbEntity
  8
0
100
AcDbSpline
 62
7
  6
BYLAYER
 70
0
 71
3
 72
11
 73
7
 74
0
 42
0.0000001
 43
0.0000001
 44
0.0000000001
 40
0.0
 40
0.0
 40
0.0
 40
0.0
 40
0.2241318817
 40
0.4596364021
 40
0.7160875174
 40
1.0
 40
1.0
 40
1.0
 40
1.0
 10
16.7619360412
 20
11.723399927
 30
0.0
 10
16.7716623594
 20
11.7234010338
 30
0.0
 10
16.7916881476
 20
11.7259733827
 30
0.0
 10
16.8208954979
 20
11.7373020484
 30
0.0
 10
16.8492663104
 20
11.755794187
 30
0.0
 10
16.866540469
 20
11.7718057356
 30
0.0
 10
16.8750142705
 20
11.7807494542
 30
0.0
  0
SPLINE
  5
3D4
100
AcDbEntity
  8
0
100
AcDbSpline
 62
7
  6
BYLAYER
 70
0
 71
3
 72
37
 73
33
 74
0
 42
0.0000001
 43
0.0000001
 44
0.0000000001
 40
0.0
 40
0.0
 40
0.0
 40
0.0
 40
0.0083670429
 40
0.0168454409
 40
0.0345229376
 40
0.0537849666
 40
0.0751384781
 40
0.098889679
 40
0.1251821817
 40
0.1540363328
 40
0.1853824894
 40
0.2190800902
 40
0.2549339761
 40
0.292707351
 40
0.3321280239
 40
0.414678105
 40
0.4999974197
 40
0.5853168752
 40
0.6678674257
 40
0.7072883208
 40
0.7450621429
 40
0.780916453
 40
0.8146144006
 40
0.845961197
 40
0.874815829
 40
0.9011087455
 40
0.9248606154
 40
0.9462145267
 40
0.9654768832
 40
0.9831547478
 40
0.9916330898
 40
1.0
 40
1.0
 40
1.0
 40
1.0
 10
14.9626689744
 20
11.723399927
 30
0.0
 10
14.9577937845
 20
11.7233993723
 30
0.0
 10
14.9479667882
 20
11.7240213967
 30
0.0
 10
14.92816382
 20
11.7277940335
 30
0.0
 10
14.9032723762
 20
11.737497356
 30
0.0
 10
14.8747229365
 20
11.756252378
 30
0.0
 10
14.847206344
 20
11.7819508792
 30
0.0
 10
14.8209081229
 20
11.8143186038
 30
0.0
 10
14.7960112113
 20
11.8530556079
 30
0.0
 10
14.7727191449
 20
11.8978121106
 30
0.0
 10
14.7512413737
 20
11.9481807988
 30
0.0
 10
14.7317768039
 20
12.0036937138
 30
0.0
 10
14.7145086881
 20
12.0638285192
 30
0.0
 10
14.6996041027
 20
12.1280170183
 30
0.0
 10
14.6828218167
 20
12.2195972832
 30
0.0
 10
14.668883272
 20
12.339722598
 30
0.0
 10
14.6633116927
 20
12.4872798653
 30
0.0
 10
14.6688823487
 20
12.6348374129
 30
0.0
 10
14.6828195056
 20
12.754963393
 30
0.0
 10
14.6996015219
 20
12.8465443789
 30
0.0
 10
14.7145052713
 20
12.9107337187
 30
0.0
 10
14.7317729427
 20
12.9708694043
 30
0.0
 10
14.751237441
 20
13.0263832021
 30
0.0
 10
14.7727143764
 20
13.0767531662
 30
0.0
 10
14.7960062094
 20
13.1215108261
 30
0.0
 10
14.8209031729
 20
13.1602488448
 30
0.0
 10
14.8472006167
 20
13.1926182803
 30
0.0
 10
14.8747171677
 20
13.2183181282
 30
0.0
 10
14.9032666697
 20
13.2370739866
 30
0.0
 10
14.9281577244
 20
13.2467794812
 30
0.0
 10
14.9479607392
 20
13.2505524229
 30
0.0
 10
14.9577875304
 20
13.2511754085
 30
0.0
 10
14.962662643
 20
13.2511753285
 30
0.0
  0
SPLINE
  5
3D5
100
AcDbEntity
  8
0
100
AcDbSpline
 62
7
  6
BYLAYER
 70
0
 71
3
 72
13
 73
9
 74
0
 42
0.0000001
 43
0.0000001
 44
0.0000000001
 40
0.0
 40
0.0
 40
0.0
 40
0.0
 40
0.2599257192
 40
0.5278656773
 40
0.6572944082
 40
0.7798083707
 40
0.8939980774
 40
1.0
 40
1.0
 40
1.0
 40
1.0
 10
16.579698827
 20
11.643540399
 30
0.0
 10
16.5754035483
 20
11.643540399
 30
0.0
 10
16.5666462902
 20
11.6418028032
 30
0.0
 10
16.5570266029
 20
11.6363494415
 30
0.0
 10
16.5508227797
 20
11.6303483021
 30
0.0
 10
16.547305531
 20
11.625375141
 30
0.0
 10
16.5450572054
 20
11.6201275877
 30
0.0
 10
16.5444824948
 20
11.6164822028
 30
0.0
 10
16.5444650356
 20
11.6147306055
 30
0.0
  0
SPLINE
  5
3D6
100
AcDbEntity
  8
0
100
AcDbSpline
 62
7
  6
BYLAYER
 70
0
 71
3
 72
14
 73
10
 74
0
 42
0.0000001
 43
0.0000001
 44
0.0000000001
 40
0.0
 40
0.0
 40
0.0
 40
0.0
 40
0.2699467282
 40
0.4094087518
 40
0.5450901376
 40
0.6729090147
 40
0.7905447848
 40
0.8983603065
 40
1.0
 40
1.0
 40
1.0
 40
1.0
 10
16.5589771412
 20
11.6104469885
 30
0.0
 10
16.5641100979
 20
11.6104469885
 30
0.0
 10
16.5719708929
 20
11.6123051994
 30
0.0
 10
16.5810265953
 20
11.6174157843
 30
0.0
 10
16.5868843334
 20
11.6224464005
 30
0.0
 10
16.5912831247
 20
11.6282843988
 30
0.0
 10
16.59390934
 20
11.6345588291
 30
0.0
 10
16.5945194107
 20
11.6408574253
 30
0.0
 10
16.5934547933
 20
11.6448083997
 30
0.0
 10
16.5926046243
 20
11.64654401
 30
0.0
  0
SPLINE
  5
3D7
100
AcDbEntity
  8
0
100
AcDbSpline
 62
7
  6
BYLAYER
 70
0
 71
3
 72
36
 73
32
 74
0
 42
0.0000001
 43
0.0000001
 44
0.0000000001
 40
0.0
 40
0.0
 40
0.0
 40
0.0
 40
0.0083670226
 40
0.0168454964
 40
0.0345233247
 40
0.0537855885
 40
0.0751391693
 40
0.0988907237
 40
0.1251832417
 40
0.1540374924
 40
0.1853841511
 40
0.2190817412
 40
0.2549360876
 40
0.2927100049
 40
0.3321309426
 40
0.4146825264
 40
0.500003704
 40
0.5853255999
 40
0.6678789708
 40
0.7073016536
 40
0.7450767951
 40
0.7809334887
 40
0.8146332405
 40
0.8459817258
 40
0.8748391269
 40
0.901133642
 40
0.9248874905
 40
0.946243734
 40
0.9655073027
 40
0.9831865006
 40
1.0
 40
1.0
 40
1.0
 40
1.0
 10
16.7619374682
 20
11.7806910774
 30
0.0
 10
16.7574281193
 20
11.7806905383
 30
0.0
 10
16.7483384985
 20
11.7812659478
 30
0.0
 10
16.7300213646
 20
11.7847556042
 30
0.0
 10
16.7069970543
 20
11.7937298682
 30
0.0
 10
16.6805892819
 20
11.8110772039
 30
0.0
 10
16.6551363329
 20
11.8348465749
 30
0.0
 10
16.6308113312
 20
11.8647856509
 30
0.0
 10
16.6077814693
 20
11.9006153374
 30
0.0
 10
16.5862360254
 20
11.9420131561
 30
0.0
 10
16.5663699535
 20
11.9886025658
 30
0.0
 10
16.5483642004
 20
12.0399497343
 30
0.0
 10
16.5323911494
 20
12.0955724581
 30
0.0
 10
16.5186046167
 20
12.1549448989
 30
0.0
 10
16.5030790706
 20
12.2396538473
 30
0.0
 10
16.4901859157
 20
12.3507670289
 30
0.0
 10
16.4850305563
 20
12.4872547016
 30
0.0
 10
16.4901801563
 20
12.6237436558
 30
0.0
 10
16.5030708226
 20
12.7348593497
 30
0.0
 10
16.5185917013
 20
12.8195717841
 30
0.0
 10
16.5323778918
 20
12.8789472378
 30
0.0
 10
16.5483474333
 20
12.934574138
 30
0.0
 10
16.5663514544
 20
12.9859256134
 30
0.0
 10
16.5862173173
 20
13.0325191863
 30
0.0
 10
16.6077590812
 20
13.0739231989
 30
0.0
 10
16.6307887652
 20
13.1097576818
 30
0.0
 10
16.655114106
 20
13.1397018618
 30
0.0
 10
16.6805602026
 20
13.1634798373
 30
0.0
 10
16.7069825342
 20
13.1808288888
 30
0.0
 10
16.7341855588
 20
13.1914640245
 30
0.0
 10
16.7528502635
 20
13.193882043
 30
0.0
 10
16.7619117822
 20
13.1938841601
 30
0.0
  0
SPLINE
  5
3D8
100
AcDbEntity
  8
0
100
AcDbSpline
 62
7
  6
BYLAYER
 70
0
 71
3
 72
36
 73
32
 74
0
 42
0.0000001
 43
0.0000001
 44
0.0000000001
 40
0.0
 40
0.0
 40
0.0
 40
0.0
 40
0.0083670949
 40
0.0168457168
 40
0.0345240545
 40
0.0537870656
 40
0.0751415651
 40
0.0988941488
 40
0.1251877589
 40
0.1540431229
 40
0.1853908841
 40
0.2190895393
 40
0.2549448877
 40
0.2927197243
 40
0.3321414793
 40
0.4146943254
 40
0.5000161793
 40
0.5853380871
 40
0.6678907642
 40
0.7073128365
 40
0.7450871965
 40
0.7809429485
 40
0.8146416148
 40
0.8459888901
 40
0.8748449896
 40
0.9011381537
 40
0.9248906611
 40
0.9462456602
 40
0.9655081934
 40
0.9831867046
 40
1.0
 40
1.0
 40
1.0
 40
1.0
 10
16.8284495163
 20
11.7806910767
 30
0.0
 10
16.8239401073
 20
11.780690917
 30
0.0
 10
16.8148503737
 20
11.7812671097
 30
0.0
 10
16.7965330609
 20
11.7847583958
 30
0.0
 10
16.7735086581
 20
11.7937347962
 30
0.0
 10
16.7471009686
 20
11.811084632
 30
0.0
 10
16.7216481757
 20
11.8348565188
 30
0.0
 10
16.6973234098
 20
11.8647981189
 30
0.0
 10
16.6742938803
 20
11.900630322
 30
0.0
 10
16.6527488675
 20
11.9420306172
 30
0.0
 10
16.632883331
 20
11.9886224332
 30
0.0
 10
16.6148782206
 20
12.0399719064
 30
0.0
 10
16.5989059121
 20
12.0955967996
 30
0.0
 10
16.585120223
 20
12.1549712449
 30
0.0
 10
16.5695959744
 20
12.239682485
 30
0.0
 10
16.556704605
 20
12.3507978961
 30
0.0
 10
16.5515515972
 20
12.4872873543
 30
0.0
 10
16.5567037261
 20
12.6237768564
 30
0.0
 10
16.569596623
 20
12.734892129
 30
0.0
 10
16.5851193315
 20
12.8196034994
 30
0.0
 10
16.5989068253
 20
12.878977656
 30
0.0
 10
16.6148776325
 20
12.9346029045
 30
0.0
 10
16.6328828643
 20
12.9859523824
 30
0.0
 10
16.6527498776
 20
13.0325436231
 30
0.0
 10
16.6742927134
 20
13.0739449888
 30
0.0
 10
16.6973233869
 20
13.1097765313
 30
0.0
 10
16.7216496395
 20
13.1397174961
 30
0.0
 10
16.7470965698
 20
13.1634920028
 30
0.0
 10
16.7735196712
 20
13.1808373125
 30
0.0
 10
16.8007233584
 20
13.1914683948
 30
0.0
 10
16.8193880647
 20
13.1938834546
 30
0.0
 10
16.8284495163
 20
13.1938841626
 30
0.0
  0
SPLINE
  5
3D9
100
AcDbEntity
  8
0
100
AcDbSpline
 62
7
  6
BYLAYER
 70
0
 71
3
 72
9
 73
5
 74
0
 42
0.0000001
 43
0.0000001
 44
0.0000000001
 40
0.0
 40
0.0
 40
0.0
 40
0.0
 40
0.497949197
 40
1.0
 40
1.0
 40
1.0
 40
1.0
 10
15.9440944695
 20
12.0069303606
 30
0.0
 10
15.9490245185
 20
12.0069303606
 30
0.0
 10
15.9589596282
 20
12.0045001103
 30
0.0
 10
15.9672854949
 20
11.9986653853
 30
0.0
 10
15.9706791442
 20
11.995033501
 30
0.0
  0
SPLINE
  5
3DA
100
AcDbEntity
  8
0
100
AcDbSpline
 62
7
  6
BYLAYER
 70
0
 71
3
 72
11
 73
7
 74
0
 42
0.0000001
 43
0.0000001
 44
0.0000000001
 40
0.0
 40
0.0
 40
0.0
 40
0.0
 40
0.2253108031
 40
0.4611431716
 40
0.7182435029
 40
1.0
 40
1.0
 40
1.0
 40
1.0
 10
15.7205948955
 20
11.9954275775
 30
0.0
 10
15.7211170329
 20
11.9971171936
 30
0.0
 10
15.7228638076
 20
12.0004024342
 30
0.0
 10
15.7272270633
 20
12.0041472421
 30
0.0
 10
15.7329483763
 20
12.0064561218
 30
0.0
 10
15.7372027548
 20
12.0069303606
 30
0.0
 10
15.7394142486
 20
12.0069303606
 30
0.0
  0
SPLINE
  5
3DB
100
AcDbEntity
  8
0
100
AcDbSpline
 62
7
  6
BYLAYER
 70
0
 71
3
 72
11
 73
7
 74
0
 42
0.0000001
 43
0.0000001
 44
0.0000000001
 40
0.0
 40
0.0
 40
0.0
 40
0.0
 40
0.2785286998
 40
0.5385387615
 40
0.7791660818
 40
1.0
 40
1.0
 40
1.0
 40
1.0
 10
15.9782696804
 20
11.9808682148
 30
0.0
 10
15.9839724384
 20
11.9643307486
 30
0.0
 10
15.9958581289
 20
11.9326407898
 30
0.0
 10
16.0158989153
 20
11.8879563868
 30
0.0
 10
16.0374095214
 20
11.8480272405
 30
0.0
 10
16.0533094419
 20
11.8237342604
 30
0.0
 10
16.061513944
 20
11.8125516308
 30
0.0
  0
SPLINE
  5
3DC
100
AcDbEntity
  8
0
100
AcDbSpline
 62
7
  6
BYLAYER
 70
0
 71
3
 72
10
 73
6
 74
0
 42
0.0000001
 43
0.0000001
 44
0.0000000001
 40
0.0
 40
0.0
 40
0.0
 40
0.0
 40
0.5444083642
 40
0.7781104484
 40
1.0
 40
1.0
 40
1.0
 40
1.0
 10
16.061513944
 20
11.8125516308
 30
0.0
 10
16.0622229381
 20
11.8115852811
 30
0.0
 10
16.0630826311
 20
11.8100345896
 30
0.0
 10
16.0633866387
 20
11.8078308203
 30
0.0
 10
16.0632323814
 20
11.8068221724
 30
0.0
 10
16.06308815
 20
11.8063554491
 30
0.0
  0
SPLINE
  5
3DD
100
AcDbEntity
  8
0
100
AcDbSpline
 62
7
  6
BYLAYER
 70
0
 71
3
 72
37
 73
33
 74
0
 42
0.0000001
 43
0.0000001
 44
0.0000000001
 40
0.0
 40
0.0
 40
0.0
 40
0.0
 40
0.0083669102
 40
0.0168452522
 40
0.0345231168
 40
0.0537854733
 40
0.0751393846
 40
0.0988912545
 40
0.125184171
 40
0.154038803
 40
0.1853855994
 40
0.219083547
 40
0.2549378571
 40
0.2927116792
 40
0.3321325743
 40
0.4146831248
 40
0.5000025803
 40
0.585321895
 40
0.6678719761
 40
0.707292649
 40
0.7450660239
 40
0.7809199098
 40
0.8146175106
 40
0.8459636672
 40
0.8748178183
 40
0.901110321
 40
0.9248615219
 40
0.9462150334
 40
0.9654770624
 40
0.9831545591
 40
0.9916329571
 40
1.0
 40
1.0
 40
1.0
 40
1.0
 10
16.7619297098
 20
13.2511753285
 30
0.0
 10
16.7570545972
 20
13.2511754085
 30
0.0
 10
16.747227806
 20
13.2505524229
 30
0.0
 10
16.7274247912
 20
13.2467794812
 30
0.0
 10
16.7025337364
 20
13.2370739866
 30
0.0
 10
16.6739842345
 20
13.2183181282
 30
0.0
 10
16.6464676835
 20
13.1926182803
 30
0.0
 10
16.6201702397
 20
13.1602488448
 30
0.0
 10
16.5952732762
 20
13.1215108261
 30
0.0
 10
16.5719814431
 20
13.0767531662
 30
0.0
 10
16.5505045077
 20
13.0263832021
 30
0.0
 10
16.5310400095
 20
12.9708694043
 30
0.0
 10
16.5137723381
 20
12.9107337187
 30
0.0
 10
16.4988685886
 20
12.8465443789
 30
0.0
 10
16.4820865723
 20
12.754963393
 30
0.0
 10
16.4681494154
 20
12.6348374129
 30
0.0
 10
16.4625787595
 20
12.4872798653
 30
0.0
 10
16.4681503388
 20
12.339722598
 30
0.0
 10
16.4820888835
 20
12.2195972832
 30
0.0
 10
16.4988711694
 20
12.1280170183
 30
0.0
 10
16.5137757548
 20
12.0638285192
 30
0.0
 10
16.5310438707
 20
12.0036937138
 30
0.0
 10
16.5505084405
 20
11.9481807988
 30
0.0
 10
16.5719862116
 20
11.8978121106
 30
0.0
 10
16.5952782781
 20
11.8530556079
 30
0.0
 10
16.6201751897
 20
11.8143186038
 30
0.0
 10
16.6464734107
 20
11.7819508792
 30
0.0
 10
16.6739900033
 20
11.756252378
 30
0.0
 10
16.7025394429
 20
11.737497356
 30
0.0
 10
16.7274308867
 20
11.7277940335
 30
0.0
 10
16.747233855
 20
11.7240213967
 30
0.0
 10
16.7570608513
 20
11.7233993723
 30
0.0
 10
16.7619360412
 20
11.723399927
 30
0.0
  0
SPLINE
  5
3DE
100
AcDbEntity
  8
0
100
AcDbSpline
 62
7
  6
BYLAYER
 70
0
 71
3
 72
35
 73
31
 74
0
 42
0.0000001
 43
0.0000001
 44
0.0000000001
 40
0.0
 40
0.0
 40
0.0
 40
0.0
 40
0.0168135588
 40
0.034491526
 40
0.0537540296
 40
0.0751079887
 40
0.0988594335
 40
0.1251525337
 40
0.1540072565
 40
0.1853543243
 40
0.2190528891
 40
0.2549079705
 40
0.2926829683
 40
0.3321051535
 40
0.4146593846
 40
0.4999835869
 40
0.5853087174
 40
0.6678653482
 40
0.7072896972
 40
0.745066374
 40
0.7809245519
 40
0.8146257579
 40
0.8459755343
 40
0.8748341707
 40
0.9011297632
 40
0.9248846084
 40
0.9462416877
 40
0.9655060031
 40
0.9831858964
 40
1.0
 40
1.0
 40
1.0
 40
1.0
 10
16.9301662893
 20
13.155689738
 30
0.0
 10
16.9215947876
 20
13.1556918075
 30
0.0
 10
16.9039397283
 20
13.1534064952
 30
0.0
 10
16.8782045326
 20
13.143358778
 30
0.0
 10
16.8532110055
 20
13.1269514797
 30
0.0
 10
16.829138093
 20
13.1044673716
 30
0.0
 10
16.8061250803
 20
13.0761487948
 30
0.0
 10
16.7843407199
 20
13.0422563039
 30
0.0
 10
16.7639592153
 20
13.0030970937
 30
0.0
 10
16.7451658651
 20
12.9590268888
 30
0.0
 10
16.7281335588
 20
12.9104555308
 30
0.0
 10
16.713022854
 20
12.8578398448
 30
0.0
 10
16.6999810635
 20
12.8016768403
 30
0.0
 10
16.6852943414
 20
12.7215465276
 30
0.0
 10
16.6730970137
 20
12.616438968
 30
0.0
 10
16.6682194509
 20
12.4873280321
 30
0.0
 10
16.6730900971
 20
12.3582155174
 30
0.0
 10
16.6852838267
 20
12.2531048036
 30
0.0
 10
16.6999652868
 20
12.1729702611
 30
0.0
 10
16.7130063297
 20
12.1168034726
 30
0.0
 10
16.7281126251
 20
12.0641826197
 30
0.0
 10
16.7451433798
 20
12.0156060808
 30
0.0
 10
16.763935584
 20
11.9715303781
 30
0.0
 10
16.7843129361
 20
11.9323637158
 30
0.0
 10
16.8060980043
 20
11.8984656894
 30
0.0
 10
16.8291085434
 20
11.8701395593
 30
0.0
 10
16.8531794437
 20
11.8476465334
 30
0.0
 10
16.8781737792
 20
11.8312350606
 30
0.0
 10
16.90390653
 20
11.8211742978
 30
0.0
 10
16.9215625694
 20
11.8188872862
 30
0.0
 10
16.9301343489
 20
11.8188853036
 30
0.0
  0
SPLINE
  5
3DF
100
AcDbEntity
  8
0
100
AcDbSpline
 62
7
  6
BYLAYER
 70
0
 71
3
 72
35
 73
31
 74
0
 42
0.0000001
 43
0.0000001
 44
0.0000000001
 40
0.0
 40
0.0
 40
0.0
 40
0.0
 40
0.0168138225
 40
0.0344929354
 40
0.0537560898
 40
0.0751117597
 40
0.0988650577
 40
0.125159054
 40
0.1540161092
 40
0.1853643688
 40
0.219064162
 40
0.2549210599
 40
0.292696615
 40
0.3321200207
 40
0.4146753501
 40
0.5000000187
 40
0.5853246285
 40
0.6678801181
 40
0.7073032318
 40
0.7450793393
 40
0.7809356938
 40
0.8146356725
 40
0.8459842628
 40
0.8748405812
 40
0.9011352987
 40
0.9248883145
 40
0.9462437112
 40
0.9655073996
 40
0.9831861613
 40
1.0
 40
1.0
 40
1.0
 40
1.0
 10
16.8636289293
 20
11.8188853012
 30
0.0
 10
16.8550572965
 20
11.8188859604
 30
0.0
 10
16.8374014371
 20
11.821170145
 30
0.0
 10
16.8116683111
 20
11.8312269014
 30
0.0
 10
16.7866734769
 20
11.8476345426
 30
0.0
 10
16.7626019913
 20
11.8701238849
 30
0.0
 10
16.7395907664
 20
11.8984464706
 30
0.0
 10
16.7178049053
 20
11.9323411188
 30
0.0
 10
16.6974266449
 20
11.9715045993
 30
0.0
 10
16.678633417
 20
12.0155773501
 30
0.0
 10
16.6616015336
 20
12.0641512006
 30
0.0
 10
16.6464940087
 20
12.1167696567
 30
0.0
 10
16.6334516485
 20
12.1729343663
 30
0.0
 10
16.6187682648
 20
12.2530667793
 30
0.0
 10
16.6065720546
 20
12.3581757789
 30
0.0
 10
16.6016983804
 20
12.4872874349
 30
0.0
 10
16.6065729019
 20
12.6163990454
 30
0.0
 10
16.6187677173
 20
12.7215081763
 30
0.0
 10
16.6334524694
 20
12.8016405223
 30
0.0
 10
16.6464929073
 20
12.8578055472
 30
0.0
 10
16.6616023415
 20
12.9104235852
 30
0.0
 10
16.6786334681
 20
12.9589976041
 30
0.0
 10
16.6974257474
 20
13.0030707495
 30
0.0
 10
16.7178062878
 20
13.0422331527
 30
0.0
 10
16.7395897975
 20
13.076129055
 30
0.0
 10
16.7626020715
 20
13.1044512271
 30
0.0
 10
16.7866743364
 20
13.1269391007
 30
0.0
 10
16.8116673083
 20
13.1433503309
 30
0.0
 10
16.8374020731
 20
13.1534021805
 30
0.0
 10
16.8550572882
 20
13.1556904328
 30
0.0
 10
16.8636289292
 20
13.1556897405
 30
0.0
  0
SPLINE
  5
3E0
100
AcDbEntity
  8
0
100
AcDbSpline
 62
7
  6
BYLAYER
 70
0
 71
3
 72
11
 73
7
 74
0
 42
0.0000001
 43
0.0000001
 44
0.0000000001
 40
0.0
 40
0.0
 40
0.0
 40
0.0
 40
0.2268727775
 40
0.4649931183
 40
0.7221570508
 40
1.0
 40
1.0
 40
1.0
 40
1.0
 10
16.5926046243
 20
11.64654401
 30
0.0
 10
16.5918415046
 20
11.6481019099
 30
0.0
 10
16.5897046953
 20
11.6510420451
 30
0.0
 10
16.5851345833
 20
11.6542846785
 30
0.0
 10
16.5794922404
 20
11.6562547389
 30
0.0
 10
16.5753835566
 20
11.6566632761
 30
0.0
 10
16.5732590543
 20
11.6566632761
 30
0.0
  0
SPLINE
  5
3E1
100
AcDbEntity
  8
0
100
AcDbSpline
 62
7
  6
BYLAYER
 70
0
 71
3
 72
14
 73
10
 74
0
 42
0.0000001
 43
0.0000001
 44
0.0000000001
 40
0.0
 40
0.0
 40
0.0
 40
0.0
 40
0.2699467282
 40
0.4094087518
 40
0.5450901376
 40
0.6729090147
 40
0.7905447848
 40
0.8983603065
 40
1.0
 40
1.0
 40
1.0
 40
1.0
 10
16.5732590543
 20
11.6566632761
 30
0.0
 10
16.5681260975
 20
11.6566632761
 30
0.0
 10
16.5602653026
 20
11.6548050652
 30
0.0
 10
16.5512096002
 20
11.6496944803
 30
0.0
 10
16.545351862
 20
11.6446638641
 30
0.0
 10
16.5409530708
 20
11.6388258658
 30
0.0
 10
16.5383268554
 20
11.6325514355
 30
0.0
 10
16.5377167847
 20
11.6262528392
 30
0.0
 10
16.5387814022
 20
11.6223018649
 30
0.0
 10
16.5396315712
 20
11.6205662546
 30
0.0
  0
ELLIPSE
  5
3E2
100
AcDbEntity
  8
0
100
AcDbEllipse
 62
7
  6
BYLAYER
 10
4.9027777778
 20
11.8804971419
 30
0.0
 11
0.0
 21
0.0307997705
 31
0.0
 40
0.9018826229
 41
0.0
 42
1.5707963268
  0
ELLIPSE
  5
3E3
100
AcDbEntity
  8
0
100
AcDbEllipse
 62
7
  6
BYLAYER
 10
5.125
 20
11.8804971419
 30
0.0
 11
-0.0
 21
0.0307997705
 31
0.0
 40
0.9018826229
 41
-1.5707963268
 42
-0.0
  0
ELLIPSE
  5
3E4
100
AcDbEntity
  8
0
100
AcDbEllipse
 62
7
  6
BYLAYER
 10
15.7279452883
 20
11.9251299632
 30
0.0
 11
-0.0016455488
 21
0.041380759
 31
0.0
 40
0.6174930956
 41
-0.0245503198
 42
1.051313795
  0
ELLIPSE
  5
3E5
100
AcDbEntity
  8
0
100
AcDbEllipse
 62
7
  6
BYLAYER
 10
15.9326255091
 20
11.9251299632
 30
0.0
 11
-0.0016455488
 21
0.041380759
 31
0.0
 40
0.6174930956
 41
-1.5953466466
 42
-0.0245503198
  0
ELLIPSE
  5
3E6
100
AcDbEntity
  8
0
100
AcDbEllipse
 62
7
  6
BYLAYER
 10
15.942803489
 20
11.5111976374
 30
0.0
 11
-0.0016455488
 21
0.041380759
 31
0.0
 40
0.6174930956
 41
-2.0902788586
 42
-1.5953466466
  0
ENDSEC
  0
SECTION
  2
OBJECTS
  0
DICTIONARY
  5
C
100
AcDbDictionary
280
0
281
1
  3
ACAD_GROUP
350
D
  3
ACAD_MLINESTYLE
350
17
  3
ACAD_LAYOUT
350
1A
  3
ACAD_PLOTSETTINGS
350
19
  3
ACAD_PLOTSTYLENAME
350
E
  0
DICTIONARY
  5
D
102
{ACAD_REACTORS
330
C
102
}
100
AcDbDictionary
280
0
281
1
  0
ACDBDICTIONARYWDFLT
  5
E
102
{ACAD_REACTORS
330
C
102
}
100
AcDbDictionary
281
1
  3
Normal
350
F
100
AcDbDictionaryWithDefault
340
F
  0
DICTIONARY
  5
17
102
{ACAD_REACTORS
330
C
102
}
100
AcDbDictionary
280
0
281
1
  3
Standard
350
18
  0
DICTIONARY
  5
19
102
{ACAD_REACTORS
330
C
102
}
100
AcDbDictionary
281
1
  0
DICTIONARY
  5
1A
102
{ACAD_REACTORS
330
C
102
}
100
AcDbDictionary
281
1
  3
Model
350
3E7
  3
Layout1
350
3E8
  0
ACDBPLACEHOLDER
  5
F
102
{ACAD_REACTORS
330
E
102
}
  0
MLINESTYLE
  5
18
102
{ACAD_REACTORS
330
17
102
}
100
AcDbMlineStyle
  2
STANDARD
 70
0
  3

 62
256
 51
90.0
 52
90.0
 71
2
 49
0.5
 62
256
  6
BYLAYER
 49
-0.5
 62
256
  6
BYLAYER
  0
LAYOUT
  5
3E7
102
{ACAD_REACTORS
330
1A
102
}
100
AcDbPlotSettings
  1

  2
none_device
  4
ANSI_C_(22.00_x_17.00_Inches)
  6

 40
0.0
 41
0.0
 42
0.0
 43
0.0
 44
558.8
 45
431.8
 46
0.0
 47
0.0
 48
0.0
 49
0.0
140
0.0
141
0.0
142
1.0
143
1.0
 70
1024
 72
0
 73
0
 74
0
  7

 75
0
147
1.0
148
0.0
149
0.0
100
AcDbLayout
  1
Model
 70
0
 71
0
 10
0.0
 20
0.0
 11
22.0
 21
17.0
 12
0.0
 22
0.0
 32
0.0
 14
0.0
 24
0.0
 34
0.0
 15
0.0
 25
0.0
 35
0.0
146
0.0
 13
0.0
 23
0.0
 33
0.0
 16
1.0
 26
0.0
 36
0.0
 17
0.0
 27
1.0
 37
0.0
 76
0
330
218
345
0
346
0
  0
LAYOUT
  5
3E8
102
{ACAD_REACTORS
330
1A
102
}
100
AcDbPlotSettings
  1

  2
none_device
  4
ANSI_C_(22.00_x_17.00_Inches)
  6

 40
0.0
 41
0.0
 42
0.0
 43
0.0
 44
558.8
 45
431.8
 46
0.0
 47
0.0
 48
0.0
 49
0.0
140
0.0
141
0.0
142
1.0
143
1.0
 70
0
 72
0
 73
0
 74
0
  7

 75
0
147
1.0
148
0.0
149
0.0
100
AcDbLayout
  1
Layout1
 70
0
 71
1
 10
0.0
 20
0.0
 11
22.0
 21
17.0
 12
0.0
 22
0.0
 32
0.0
 14
0.0
 24
0.0
 34
0.0
 15
0.0
 25
0.0
 35
0.0
146
0.0
 13
0.0
 23
0.0
 33
0.0
 16
1.0
 26
0.0
 36
0.0
 17
0.0
 27
1.0
 37
0.0
 76
0
330
219
345
0
346
0
  0
ENDSEC
  0
EOF
